Misc Cartoons - Kick Buttowski Theme tab

e|------------------------------------------------------------------|
B|------------------------------------------------------------------|
G|------------------------------------------------------------------|
D|---9------------2------------9---------------2--------------------|
A|---9------------2------------9---------------2--------------------|
E|---7----5-6-7---0------------7------5-6-7----0--------------------|

e|------------------------------------------------------------------|
B|------------------------------------------------------------------|
G|------------------------------------------------------------------|
D|---9---2-2--5--5-5--5-7------9---2-2--5--5-5--5-7-----------------|
A|---9---2-2--5--5-5--5-7------9---2-2--5--5-5--5-7-----------------|
E|---7---0-0--3--3-3--3-5------7---0-0--3--3-3--3-5-----------------|


e|---11-11-11-11-11-11-11-11-10-10-10-10--9--9--9--9----------------|
B|---12-12-12-12-12-12-12-12-11-11-11-11-10-10-10-10----------------|
G|------------------------------------------------------------------|
D|------------------------------------------------------------------|
A|------------------------------------------------------------------|
E|------------------------------------------------------------------|

e|---11-11-11-11-11-11-11-11----------------------------------------|
B|---12-12-12-12-12-12-12-12----------------------------------------|
G|---------------------------\\\\\\\\\\\\\\\\\\\\\\\\\\\\\\\\\\\----|
D|------------------------------------------------------------------|
A|------------------------------------------------------------------|
E|------------------------------------------------------------------|

e|-------------------------------------------------------------------|
B|-------------------------------------------------------------12----|
G|--4-4-4-4-4-5-5-5-5-5-7-7-7-7-7-9-9-9-9-9-11-11-11-12-12-12--14r---|
D|-------------------------------------------------------------------|
A|-------------------------------------------------------------------|
E|-------------------------------------------------------------------|

e|-------------------------------------------------------------------------|
B|-12-15-12-15-12---12--12-------------------------------------------------|
G|----------------14---14--------------------------------------------------|
D|-------------------------14r-14-12---9-9-9-9---7-7-7-7---9-9-9-9---11-11-|
A|-------------------------------------------------------------------------|
E|-------------------------------------------------------------------------|

e|-------------------------------------------------------|
B|-8------7------5-----------8--------7-------5----------|
G|-10b----9b-----7b----------10b------9b------7b---------|
D|-------------------------------------------------------|
A|-------------------------------------------------------|
E|-------------------------------------------------------|

e|-----------------------------------|
B|-----------------------------------|
G|-----------------------------------|
D|---7--9--12--9---------------------|
A|---7--9--12--9---------------------|
E|---5--7--10--7---------------------|

END
Tap to rate this tab
 
# A B C D E F G H I J K L M N O P Q R S T U V W X Y Z