Song name
# A B C D E F G H I J K L M N O P Q R S T U V W X Y Z

Misc Cartoons - Pokemon - Lugias Song tab

-------------------------------------------------------------------------------
			     Lugia's Song - Misc Cartoon
-------------------------------------------------------------------------------
Tabbed by: Fcrouch
Email: crouch.forrest@yahoo.com

Tuning:EADGBe

e|-------------------------2--5/7-5------------------------------------------|
B|-0-3-2---0---0-3-2---0-2----------7-3-5-7-5-0-3-2---0----------------------|
G|-------2-----------2------------------------------2------------------------|
D|-----------4---------------------------------------------------------------|
A|---------------------------------------------------------------------------|
E|---------------------------------------------------------------------------|

************************************

| /   slide up
| \   slide down
| h   hammer-on
| p   pull-off
| ~   vibrato
| +   harmonic
| x   Mute note
| b   Bend
| pb  Pre-bend
| br  Bend release
| pbr Pre-bend release
| brb Bend release bend

************************************
Tap to rate this tab
 
# A B C D E F G H I J K L M N O P Q R S T U V W X Y Z