Misc Cartoons - Macross Frontier - Aimo tab

Apologies for misspellings!
this is the solo version!
newbie at writing tabs! bear with me!
www.nakajimamegumi.com/

|------3-1------------------3-6-8-5------------------|
|-1-----------4-3----1-------------------------------|
|----------------------------------------------------|
|----------------------------------------------------|
|----------------------------------------------------|
|----------------------------------------------------|

aimo aimo nede ruushe

|------3-1----------------3-6-8-5-3--9-5-3----------------------------|
|-1-----------4-3--1--------------------------------------------------|
|---------------------------------------------------------------------|
|---------------------------------------------------------------------|
|---------------------------------------------------------------------|
|---------------------------------------------------------------------|

noina maria ender prodea

|-10-5-3------------------|
|-------------------------|
|-------------------------|
|-------------------------|
|-------------------------|
|-------------------------|

photomih

|----------6-5-3-1-3-6-5-1-3----------------------------|
|-6-8---------------------------------------------------|
|-------------------------------------------------------|
|-------------------------------------------------------|
|-------------------------------------------------------|
|-------------------------------------------------------|

(koko wa atta kana umi da yo)

|-8-8-8-11-10-8-------------------|
|---------------------------------|
|---------------------------------|
|---------------------------------|
|---------------------------------|
|---------------------------------|

ruure ruureia

|-8-6-8-6---------3----------------|
|------------------4-4----6-4-6-8--|
|----------------------------------|
|----------------------------------|
|----------------------------------|
|----------------------------------|

sora wo mau hibari wa nami da

|-8-8-8-11-10-8-------------------|
|---------------------------------|
|---------------------------------|
|---------------------------------|
|---------------------------------|
|---------------------------------|

ruure ruureia

|-8-6-8-6---------3----------------|
|------------------4-4----6-4-6-8--|
|----------------------------------|
|----------------------------------|
|----------------------------------|
|----------------------------------|

omae wa yasashi nidori no ko

|------3-1------------------3-6-8-5------------------|
|-1-----------4-3----1-------------------------------|
|----------------------------------------------------|
|----------------------------------------------------|
|----------------------------------------------------|
|----------------------------------------------------|

aimo aimo nede ruushe

|------3-1----------------3-6-8-5-3--9-5-3----------------------------|
|-1-----------4-3--1--------------------------------------------------|
|---------------------------------------------------------------------|
|---------------------------------------------------------------------|
|---------------------------------------------------------------------|
|---------------------------------------------------------------------|

noina maria ender prodea

|-10-5-3------------------|
|-------------------------|
|-------------------------|
|-------------------------|
|-------------------------|
|-------------------------|

photomih

|----------6-5-3-1-3-6-5-1-3----------------------------|
|-6-8---------------------------------------------------|
|-------------------------------------------------------|
|-------------------------------------------------------|
|-------------------------------------------------------|
|-------------------------------------------------------|

(koko wa atta kana umi da yo)

|------------------------3-6------------|-11-10-8-6-6-8-10-11--------|
|-4-4-6-4-6-----------4-4-|------------------------------------------|
|-------------------------------------------|------------------------|
|---------------------------------------------|----------------------|
|---------------------------------------------|----------------------|
|---------------------------------------------|----------------------|

mune no bokuni ne muru ookina ookina

|-6-4-3-3-4-6-6---------------------------------------------|
|-----------------------------------------------------------|
|-----------------------------------------------------------|
|-----------------------------------------------------------|
|-----------------------------------------------------------|
|-----------------------------------------------------------|


(yutsukushi ni wa) x2

|------------------------3-6------------|-11-10-8-6-6-8-10-11--------|
|-4-4-6-4-6-----------4-4-|------------------------------------------|
|-------------------------------------------|------------------------|
|---------------------------------------------|----------------------|
|---------------------------------------------|----------------------|
|---------------------------------------------|----------------------|

tsunagu te no hinano hondo de shizukari

|-6-4-3-3-4-6-6---------------------------------------------|
|-----------------------------------------------------------|
|-----------------------------------------------------------|
|-----------------------------------------------------------|
|-----------------------------------------------------------|
|-----------------------------------------------------------|

(meosamasuyo) x2



|----------6-5-3-1-3-6-5-1-3----------------------------|
|-6-8---------------------------------------------------|
|-------------------------------------------------------|
|-------------------------------------------------------|
|-------------------------------------------------------|
|-------------------------------------------------------|


(koko wa atta kana umi da yo)

|------3-1------------------3-6-8-5------------------|
|-1-----------4-3----1-------------------------------|
|----------------------------------------------------|
|----------------------------------------------------|
|----------------------------------------------------|
|----------------------------------------------------|

aimo aimo nede ruushe

|------3-1----------------3-6-8-5-3--9-5-3----------------------------|
|-1-----------4-3--1--------------------------------------------------|
|---------------------------------------------------------------------|
|---------------------------------------------------------------------|
|---------------------------------------------------------------------|
|---------------------------------------------------------------------|

mukashi minna hitotsutata sekai

|----------6-5-3-1-3-6-5-1-3----------------------------|
|-6-8---------------------------------------------------|
|-------------------------------------------------------|
|-------------------------------------------------------|
|-------------------------------------------------------|
|-------------------------------------------------------|


ohiteatakana sora atta yo
Tap to rate this tab
 
# A B C D E F G H I J K L M N O P Q R S T U V W X Y Z