Song name
# A B C D E F G H I J K L M N O P Q R S T U V W X Y Z

Misc Cartoons - Hoodwinked - Critters Have Feelings Too tab

Hoodwinked
Critters Have Feelings Too
Guitar Tab
Standard Tuning - EADGBE
Tabbed By Jonathan Mack


This Is The Theme Song From The Animated Movie - Hoodwinked.


Note: The Only Real Guitar During This Song Is The Rhythm.
      But Theres Alot Of Synth Throughout.
      I Have Transcribed The Synths As...
      
      'Lead Guitar' and 'Guitar Three'
      
       


. Palm Mute
/ Slide Up
\ Slide Down
H Hold Note/Ring Out
v Vibrato



Intro

Rhythm Guitar
0:00
|--------------------------------|
|--------------------------------|
|--------------------------------|
|--------------------------------| x1
|--------------------------------|
|33333333333333333333333333333333|
 ................................

0:07
|-----------------------------------------------|
|-----------------------------------------------|
|-----------------------------------------------|
|---55----55----55----55----55----55----55----55| x1
|-----------------------------------------------|
|33----33----33----33----33----33----33----33---|
 .. .. .. .. .. .. .. .. .. .. .. .. .. .. .. ..

0:14
|------------------------|-----------------------|
|------------------------|-----------------------|
|------------------------|-----------------------|
|---55----55----55------7|---------------55------| x2
|------------------------|---77----77-33----3-555|
|33----33----33----3-55--|00----00---------------|
 .. .. .. .. .. .. . ..   .. .. .. .. .. .. . ...

0:21
|------------------------------------|
|------------------------------------|
|------------------------------------|
|------------------------------555555| x1
|---------------------------33-333333|
|33333333333333-55-00000000----------|
 .............. .. ........ ..   

0:35
|----------------|
|----------------|
|----------------|
|5555555555555555| x1
|5555555555555555|
|3333333333333333|



Lead Guitar
0:14
|---------8/10H---------|---------10/12H-------12------------|
|8/10\8-----------10\8--|8/10\8----------13-------13----10---|
|-------7--------------9|-------9-----------12-------12----12|
|-----------------------|------------------------------------| x3
|-----------------------|------------------------------------|
|-----------------------|------------------------------------|


Guitar Three
0:15
|-----------------5-7---5-7|----------------5-7---5-7--|
|-------------8-8-----8----|----------8-8-8-----8-----8|
|--------------------------|---------------------------|
|--------------------------|---------------------------| x3
|--------------------------|---------------------------|
|--------------------------|---------------------------|
              . . . . . . .           . . . . . . . . .



Verse One


Rhythm Guitar

0:39
|-----------------|-----------------|
|-----------------|-----------------|
|---------------77|-----------------|
|55555555-77777777|-----------------| x1
|33333333-555555--|55555555-22222222|
|-----------------|33333333-00000000|
 ........ ........ ........ ........

0:46
|-----------------|-----------------|
|-----------------|-----------------|
|-----------------|-----------------|
|55555555-77777777|-----------------| x2
|33333333-55555555|55555555-22222222|
|-----------------|33333333-00000000|
 ........ ........ ........ ........

1:01
|-----------------|-----------------|
|-----------------|-----------------|
|-----------------|-----------------|
|55555555-77777777|55555555-77777777| x1
|33333333-55555555|33333333-55555555|
|-----------------|-----------------|
 ........ ........ ....



Chorus One


Rhythm Guitar
1:08
|-----------------------------------|
|-----------------------------------|
|----------------------------5555-77|
|5555-5555-5555-77-2222-2222-5555-77| x2
|5555-5555-5555-77-2222-2222-3333-55|
|3333-3333-3333-55-0000-0000--------|


Lead Guitar
1:08
|---------8/10H---------|---------10/12H-------12------------|
|8/10\8-----------10\8--|8/10\8----------13-------13----10---|
|-------7--------------9|-------9-----------12-------12----12|
|-----------------------|------------------------------------| x1
|-----------------------|------------------------------------|
|-----------------------|------------------------------------|

1:15
|---------8/10H---------|---------10/12H-------12-------12----|
|8/10\8-----------10\8--|8/10\8----------13-------13-------13\|
|-------7--------------9|-------9-----------12-------12-------|
|-----------------------|-------------------------------------| x1
|-----------------------|-------------------------------------|
|-----------------------|-------------------------------------|


Guitar Three
1:09
|-----------------5-7---5-7|----------------5-7---5-7--|
|-------------8-8-----8----|----------8-8-8-----8-----8|
|--------------------------|---------------------------|
|--------------------------|---------------------------| x2
|--------------------------|---------------------------|
|--------------------------|---------------------------|
              . . . . . . .           . . . . . . . . .


Verse Two


Rhythm Guitar
1:22
|-----------------|-----------------|
|-----------------|-----------------|
|55555555-77777777|-----------------|
|55555555-77777777|55555555-22222222| x3
|33333333-55555555|55555555-22222222|
|-----------------|33333333-00000000|
 ........ ........ ........ ........

1:44
|-----------------|-----------------|
|-----------------|-----------------|
|55555555-77777777|55555555-77777777|
|55555555-77777777|55555555-77777777| x1
|33333333-55555555|33333333-55555555|
|-----------------|-----------------|
 ........ ........ ........



Chorus Two


Rhythm Guitar
1:51
|-----------------------------------|
|-----------------------------------|
|----------------------------5555-77|
|5555-5555-5555-77-2222-2222-5555-77| x2
|5555-5555-5555-77-2222-2222-3333-55|
|3333-3333-3333-55-0000-0000--------|


Lead Guitar
1:51
|---------8/10H---------|---------10/12H-------12------------|
|8/10\8-----------10\8--|8/10\8----------13-------13----10---|
|-------7--------------9|-------9-----------12-------12----12|
|-----------------------|------------------------------------| x1
|-----------------------|------------------------------------|
|-----------------------|------------------------------------|

1:58
|---------8/10H---------|---------10/12H-------12-------12----|
|8/10\8-----------10\8--|8/10\8----------13-------13-------13\|
|-------7--------------9|-------9-----------12-------12-------|
|-----------------------|-------------------------------------| x1
|-----------------------|-------------------------------------|
|-----------------------|-------------------------------------|



Break Down


Rhythm Guitar
2:05
|-----------------------------------------------|
|-----------------------------------------------|
|-----------------------------------------------|
|---55----55----55----55----77----77----99----99| x2
|33----33---------------------------------------|
|------------33----33----55----55----00----00---|
 .. .. .. .. .. .. .. .. .. .. .. .. .. .. .. .

2:19
|-----------------------------------------------|
|-----------------------------------------------|
|-----------------------------------------------|
|---55----55----55----55----77----77----99----99| x2
|33----33---------------------------------------|
|------------33----33----55----55----00----00---|
 .. .. .. .. .. .. .. .. .. .. .. .. .. .. .. ..


Lead Guitar
2:05
|-----------------|
|-----------------|
|-----------------|
|-----------------| x1
|-----------------|
|8v-\\------------|



Bridge Section


Rhythm Guitar
2:34
|-----------------|-----------------|
|-----------------|-----------------|
|-----------------|-----------------|
|55555555---------|-----------------| x1
|33333333-55555555|77777777-22222222|
|---------33333333|55555555-00000000|

2:41
|-----------------|------------------|
|-----------------|------------------|
|-----------------|---------------7-7|
|55555555---------|---------2-2-2-7-7| x1
|33333333-55555555|77777777-2-2-2-5-5|
|---------33333333|55555555-0-0-0----|


Lead Guitar 
2:34
|14/15\14--12/14\12--10/12\10----------|12/14--12\10--10/12-------|
|------------------------------13/15\13|---------------------15\13|
|--------------------------------------|--------------------------|
|--------------------------------------|--------------------------| x1
|--------------------------------------|--------------------------|
|--------------------------------------|--------------------------|

2:37
|------------------------------------|--------------------------|
|13/15\13--12/13\12--10/12\10--8/10\8|13/15--13\12--12/13--12\10|
|------------------------------------|--------------------------|
|------------------------------------|--------------------------| x1
|------------------------------------|--------------------------|
|------------------------------------|--------------------------|

2:41
|14/15\14--12/14\12--10/12\10----------|12/14--12\10--10/12-------|
|------------------------------13/15\13|---------------------15\13|
|--------------------------------------|--------------------------|
|--------------------------------------|--------------------------| x1
|--------------------------------------|--------------------------|
|--------------------------------------|--------------------------|

2:44
|------------------------------------|--------------------------|
|13/15\13--12/13\12--10/12\10--8/10\8|13/15--13\12--------------|
|------------------------------------|--------------------------|
|------------------------------------|--------------------------| x1
|------------------------------------|--------------------------|
|------------------------------------|--------------------------|



Chorus Three/Outro


Rhythm Guitar
2:48
|-----------------------------------|
|-----------------------------------|
|----------------------------5555-77|
|5555-5555-5555-77-2222-2222-5555-77| x5
|5555-5555-5555-77-2222-2222-3333-55|
|3333-3333-3333-55-0000-0000--------|

3:24                         
|---------------------------|---------|
|---------------------------|---------|
|---------------------------|-55-77---|
|5555-5555-5555-77-2222-2222|-55-77-55| x1
|5555-5555-5555-77-2222-2222|-33-55-55|
|3333-3333-3333-55-0000-0000|-------33|



Lead Guitar
2:48
|---------8/10H---------|---------10/12H-------12------------|
|8/10\8-----------10\8--|8/10\8----------13-------13----10---|
|-------7--------------9|-------9-----------12-------12----12|
|-----------------------|------------------------------------| x5
|-----------------------|------------------------------------|
|-----------------------|------------------------------------|

3:24
|---------8/10H---------|---------10/12H------|
|8/10\8-----------10\8--|8/10\8----------13---|
|-------7--------------9|-------9-----------12|
|-----------------------|---------------------| x1
|-----------------------|---------------------|
|-----------------------|---------------------|


Guitar Three
2:49
|-----------------5-7---5-7|----------------5-7---5-7--|
|-------------8-8-----8----|----------8-8-8-----8-----8|
|--------------------------|---------------------------|
|--------------------------|---------------------------| x5
|--------------------------|---------------------------|
|--------------------------|---------------------------|
              . . . . . . .           . . . . . . . . .

3:25
|-----------------5-7---5-7|---------------|
|-------------8-8-----8----|----------8-8-8|
|--------------------------|---------------|
|--------------------------|---------------| x1
|--------------------------|---------------|
|--------------------------|---------------|
              . . . . . . .           . . .
Tap to rate this tab
 
# A B C D E F G H I J K L M N O P Q R S T U V W X Y Z