Misc Cartoons - Pokemon - Tv Show Theme tab

Title: Gotta Catch'em All - Pokemon TV-SHOW Theme (Arranged by Christoffer Brandsborg
Capo: No
Tuning: Standard Tuning (EADGBE)
Guitars: 2 (This is what guitar 1 has to play)

Lyrics & Tabs:

Vers 1:

I want to be the very best,
Like no one ever was.
To catch them is my real test,
To train them is my cause.

Chords: A, G, C, G

E|---0-0-0-0--0-------0-0---------------------------------|
B|--------------3-0---1----3-1-3--------------------------|
G|------------------0-0--------------0--------------------|
D|---------------------------------0----------------------|
A|-0------------------3-----------------------------------|
E|--------------3---3------------3------------------------|

Chords: Dm, C, A

E|---1-1-1-0---------0-0------0---------------------------|
B|---3--------3-1--1-1----3-1-0---------------------------|
G|---2---------------0--------2---------------------------|
D|-0--------------------------2---------------------------|
A|-------------------3------------------------------------|
E|--------------------------------------------------------|

Vers 2:

I will travel across the land,
Searching far and wide.
Teach Pokemon to understand
The power that's inside

Chords: A, G, C, G

E|---0-0-0-0--0-------0-0---------------------------------|
B|--------------3-0---1----3-1-3--------------------------|
G|------------------0-0--------------0--------------------|
D|---------------------------------0----------------------|
A|-0------------------3-----------------------------------|
E|--------------3---3------------3------------------------|

Chords: Dm, C, A

E|---1-1-1-0---------0-0------0---------------------------|
B|---3--------3-1--1-1----3-1-0---------------------------|
G|---2---------------0--------2---------------------------|
D|-0--------------------------2---------------------------|
A|-------------------3------------------------------------|
E|--------------------------------------------------------|

Pokémon (Gotta catch 'em all)
It's you and me
I know it's my destiny
Pokémon
(Oh) You're my best friend
In a world we must defend

Chorus 1:

Chords: Ukjent, Ukjent 2, Ukjent 3, G

E|-0-3-5--0-0-3-5-5-3--5-5-7-8-7-5-3----------------------|
B|---------------------------------3----------------------|
G|---------------------------------0----------------------|
D|-----3--------------------------------------------------|
A|--------------------------------------------------------|
E|----------------3-3--5-------3---3----------------------|

Chords: Ukjent, C, Dsus4

E|-0-3-5--5--5-3-0--------0-0------0----------------------|
B|-----------------1--1-3-1----3-1-3----------------------|
G|-----------------0------0--------2----------------------|
D|-----------------2------2--------2----------------------|
A|-----------------3------3-------------------------------|
E|-----1--------------------------------------------------|

Pokémon (Gotta catch 'em all)
A heart so true
Our courage will pull us through
You teach me and I'll teach you
Pokémon
Gotta catch 'em all
Gotta catch 'em all, yeah

Chorus 2:

Chords: Ukjent, Ukjent 2, Ukjent 3, G

E|-0-3-5--0-0-3-5-5-3--5-5-7-8-7-5-3----------------------|
B|---------------------------------3----------------------|
G|---------------------------------0----------------------|
D|-----3--------------------------------------------------|
A|--------------------------------------------------------|
E|----------------3-3--5-------3---3----------------------|

E|---8-8-----8-8---8-8-7--0-0-3-5-5--0-0-3-5-8-3-5--0-3-5-|
B|-6-----6-8-----8-8-------------------------8----------5-|
G|-----------------0--------------------------------------|
D|-0------------------------------3-----------------------|
A|--------------------------------------------------------|
E|---------8-------8---7---------------------8----------5-|

Every challenge along the way
With courage I will face
I will battle everyday
To claim my rightful place

Vers 3:

Chords: A, G, C, G

E|---0-0-0-0--0-------0-0---------------------------------|
B|--------------3-0---1----3-1-3--------------------------|
G|------------------0-0--------------0--------------------|
D|---------------------------------0----------------------|
A|-0------------------3-----------------------------------|
E|--------------3---3------------3------------------------|

Chords: Dm, C, A

E|---1-1-1-0---------0-0------0---------------------------|
B|---3--------3-1--1-1----3-1-0---------------------------|
G|---2---------------0--------2---------------------------|
D|-0--------------------------2---------------------------|
A|-------------------3------------------------------------|
E|--------------------------------------------------------|

Come with me the time is right
There's no better team
Arm and arm we'll win the fight
It's always been our dream

Vers 4:

Chords: A, G, C, G

E|---0-0-0-0--0-------0-0---------------------------------|
B|--------------3-0---1----3-1-3--------------------------|
G|------------------0-0--------------0--------------------|
D|---------------------------------0----------------------|
A|-0------------------3-----------------------------------|
E|--------------3---3------------3------------------------|

Chords: Dm, C, A

E|---1-1-1-0---------0-0------0---------------------------|
B|---3--------3-1--1-1----3-1-0---------------------------|
G|---2---------------0--------2---------------------------|
D|-0--------------------------2---------------------------|
A|-------------------3------------------------------------|
E|--------------------------------------------------------|

Pokémon (Gotta catch 'em all)
It's you and me
I know it's my destiny
Pokémon
(Oh) You're my best friend
In a world we must defend

Chorus 3:

Chords: Ukjent, Ukjent 2, Ukjent 3, G

E|-0-3-5--0-0-3-5-5-3--5-5-7-8-7-5-3----------------------|
B|---------------------------------3----------------------|
G|---------------------------------0----------------------|
D|-----3--------------------------------------------------|
A|--------------------------------------------------------|
E|----------------3-3--5-------3---3----------------------|

Chords: Ukjent, C, Dsus4

E|-0-3-5--5--5-3-0--------0-0------0----------------------|
B|-----------------1--1-3-1----3-1-3----------------------|
G|-----------------0------0--------2----------------------|
D|-----------------2------2--------2----------------------|
A|-----------------3------3-------------------------------|
E|-----1--------------------------------------------------|

Pokémon (Gotta catch 'em all)
A heart so true
Our courage will pull us through
You teach me and I'll teach you
Pokémon
Gotta catch 'em all
Gotta catch 'em all, yeah

Chorus 4:

E|-0-3-5--0-0-3-5-5-3--5-5-7-8-7-5-3----------------------|
B|---------------------------------3----------------------|
G|---------------------------------0----------------------|
D|-----3--------------------------------------------------|
A|--------------------------------------------------------|
E|----------------3-3--5-------3---3----------------------|

E|---8-8-----8-8---8-8-7--0-0-3-5-5--0-0-3-5-8-3-5--0-3-5-|
B|-6-----6-8-----8-8-------------------------8----------5-|
G|-----------------0--------------------------------------|
D|-0------------------------------3-----------------------|
A|--------------------------------------------------------|
E|---------8-------8---7---------------------8----------5-|

I listened to this song late one night, and found my guitar and began playing. And this 
is the "result", not perfect...but I'm sure you can find some extra "details" yourself 
to make it better!
Tap to rate this tab
 
# A B C D E F G H I J K L M N O P Q R S T U V W X Y Z