Song name
# A B C D E F G H I J K L M N O P Q R S T U V W X Y Z

Misc Cartoons - What A Cartoon Theme tab

Hello all you happy people. You know what? This is my first tab here, but I think it's 
spot on.
It's the theme from What A Cartoon! by Gary Lionelli, and it's bound to bring back warm, 
fuzzy memories.

|-------------|       |-------------|    |-------------------|
|-------------|       |-------------|    |-------------------|
|-/9999999999-|       |-/9999999999-|    |-/9999999999999999-|
|-/9999999999-|       |-/9999999999-|    |-/9999999999999999-|
|-/7777777777-|       |-/7777777777-|    |-/7777777777777777-|
|-------------| What! |-------------| A! |-------------------|

Cartoon!
-------------------|-----------------------------|----10h12-12b13-10----------|
-------------------|-----10-11h12-11h12-11p10----|-12---------------12p10--12-|
-------------------|-9-12---------------------12-|-----------------------12---|
-/9999999999999999-|-----------------------------|----------------------------|
-/9999999999999999-|-----------------------------|----------------------------|
-/7777777777777777-|-----------------------------|----------------------------|

|-----------------------------|---10h12-12b13-10-----10h12-12b13-10----------|----|
|-----10-11h12-11h12-11p10----|-12---------------12----------------12-10-----|----|
|-9-12---------------------12-|-----------------------------------------12-9-|-9\-|
|-----------------------------|----------------------------------------------|-9\-|
|-----------------------------|----------------------------------------------|-7\-|
|-----------------------------|----------------------------------------------|----|
Tap to rate this tab
 
# A B C D E F G H I J K L M N O P Q R S T U V W X Y Z