Misc Cartoons - Invader Zim Theme tab

Invader Zim Intro

      S  S  S  S  S  S  S  S  S  S  S  S  S  S  S  S  
E||--------------10----------------------------------|
B||--10-------------10----10-11-10----10-15-14-13-12-|
G||-----10----10-------10----------10----------------|
D||--------12----------------------------------------|
A||--------------------------------------------------|
E||--------------------------------------------------|


   S  S  S  S  S  S  S  S  S  S  S  S  S  S  S  S  
--------------10----------------------------------|
--11-10----10----10----10-11-10-------------------|
--------10----------10----------10-14-------------|
--------------------------------------15-14-13-12-|
--------------------------------------------------|
--------------------------------------------------|


   S  S  S  S  S  S  S  S  S  S  S  S  S  S  S  S  
--------------10----------------------------------|
--11-10----10----10----10-11-10----10-15-14-13-12-|
--------10----------10----------10----------------|
--------------------------------------------------|
--------------------------------------------------|
--------------------------------------------------|


   S  S  S  S  S  S  S  S  S  S  S  S  Q      
--------------------------------------------||
--15-14-13-12-15-14-13-12-15-14-13-12-11----||
--------------------------------------------||
--------------------------------------------||
--------------------------------------------||
--------------------------------------------||
Tap to rate this tab
 
# A B C D E F G H I J K L M N O P Q R S T U V W X Y Z