Song name
# A B C D E F G H I J K L M N O P Q R S T U V W X Y Z

Misc Cartoons - Futurama Theme tab

E|----------------------------------------------------------------------------|
B|----------------------------------------------------------------------------|
G|--------2-1------------------2-2----------------2-2------0-0----------2--1--|
D|--2--2------0--0--4--2--2-2------0-0--2-2--2-2------0-0-------4-2--2-------0|
A|----------------------------------------------------------------------------|
E|----------------------------------------------------------------------------|

E|------------------------------------|
B|------------------------------------|
G|----------------2--1-4--4--0-0------|
D|--0--4--2--2--2-----------------4-4-|
E|------------------------------------|
Tap to rate this tab
 
# A B C D E F G H I J K L M N O P Q R S T U V W X Y Z