Song name
# A B C D E F G H I J K L M N O P Q R S T U V W X Y Z

Misc Cartoons - Nigga Stole My Bike tab

The main intro riff to "nigga stole my bike"

e|--------12--10--8--7-------10--8--7--5------------|
B|-10~~~---------------8~~~---------------6~~~------|
G|--------------------------------------------------|
D|--------------------------------------------------|
A|--------------------------------------------------|
E|--------------------------------------------------|

e|--8--7--5--3--------------------------------------|
B|--------------5~~~--------------------------------|
G|--------------------------------------------------|
D|--------------------------------------------------|
A|--------------------------------------------------|
E|--------------------------------------------------|
Tap to rate this tab
 
# A B C D E F G H I J K L M N O P Q R S T U V W X Y Z