Song name
# A B C D E F G H I J K L M N O P Q R S T U V W X Y Z

Misc Cartoons - Lugias Song tab

-------------------------------------------------------------------------------
			     Lugia's Song from Pokemon 2000
-------------------------------------------------------------------------------
Tabbed by:aleckillscobra
Email:alecty15@yahoo.com

Tuning:Standard

I'll figure out the second part later

e|-------------------------------------------------------------------------------|
B|-------------------------------------------------------------------------------|
G|-----------------------------------9-7-----------------------------------------|
D|-------------------------------9~------9----7h9p7-------9-7--------------------|
A|-7-10-9----7-----7-10-9---7-10-----------10-------7~--7--------9-7h9p7-----7---|
E|--------10---7~---------7-----------------------------------10---------10------|


Tap to rate this tab
 
# A B C D E F G H I J K L M N O P Q R S T U V W X Y Z