Song name
# A B C D E F G H I J K L M N O P Q R S T U V W X Y Z

Misc Cartoons - Pokemon - Evolution Nickname tab

PART OF EVOLUTION

 
E|---------|--------------------------------| 
B|-12--12--|--------------------------------| 
G|---13--13|--------------------------------|
D|---------|---------------8---------------9| 
A|---------|-7-9-7-9-7-9-7---7-9-7-9-7-9-7--|
E|---------|--------------------------------|

E|----------------------------|---------------------|
B|----------------------------|---------------------| 
G|----------------------------|---------------------|
D|---------------8------------|---9-6---9-9-9-6-9-8-| 
A|-7-9-7-9-7-9-7---7-9-7-9-7-9|-------7-------------|
E|----------------------------|---------------------|

PART OF NICKNAME


E|---------------------------|-----------------------|
B|---------------7-7-7-------|---------------7-7-7---| 
G|-9-7-6-7-9-9-9-------9-9-9-|-9-7-6-7-9-9-9-------9-|
D|---------------------------|-----------------------| 
A|---------------------------|-----------------------|
E|---------------------------|-----------------------|


E|---------------6-6-6-------|---------------6-6-6---|
B|-9-7-6-7-9-9-9-------9-9-9-|-9-7-6-7-9-9-9-------9-|
G|---------------------------|-----------------------|
D|---------------------------|-----------------------| 
A|---------------------------|-----------------------|
E|---------------------------|-----------------------|

THE END
Tap to rate this tab
# A B C D E F G H I J K L M N O P Q R S T U V W X Y Z