Song name
# A B C D E F G H I J K L M N O P Q R S T U V W X Y Z

Misc Cartoons - Flintstones Theme tab

E|----------------------------------------------------------|
B|----------------------------------------------------------|
G|--------3--0-----------------------------------------3--0-|
D|--3-----------3-----3--1--0--0--1--3--------0--3----------|
A|-----1-----------1--------------------1--3--------1-------|
E|----------------------------------------------------------|

----------------------------------------------------------|
----------------------------------------------------------|
--------------------------------------------3--5--3-------|
-3-----3--1--0--0--1--3--------0--0--1--3-----------------|
----1--------------------1--3-----------------------------|
----------------------------------------------------------|

Sorry I didn't get to add the cool part but this is my first tab

If any =one has any changes send me a message to my UG account
Tap to rate this tab
# A B C D E F G H I J K L M N O P Q R S T U V W X Y Z