Song name
# A B C D E F G H I J K L M N O P Q R S T U V W X Y Z

Misc Cartoons - Sonic Speed Riders Theme tab

E-5-5--5-5--5-5--5-5--08-08--08-08--08-08--08-08--5-5--5-5--5-5--5-5---|
A-7-7--7-7--7-7--7-7--10-10--10-10--10-10--10-10--7-7--7-7--7-7--7-7---|
D----------------------------------------------------------------------|
G----------------------------------------------------------------------|
B----------------------------------------------------------------------|
E----------------------------------------------------------------------|
                                                                         X2
E-10-10--10-10--10-10--10-10-------------------------------------------|
A-12-12--12-12--12-12--12-12-------------------------------------------|
D----------------------------------------------------------------------|
G----------------------------------------------------------------------|
B----------------------------------------------------------------------|
E----------------------------------------------------------------------|




 This part only hits one chord and let's it ring through the whole part.
E--5-------------------------------------------------------------------|
A--7-------------------------------------------------------------------|
D----------------------------------------------------------------------|
G----------------------------------------------------------------------|
B----------------------------------------------------------------------|
E----------------------------------------------------------------------|



                        It switches keys here.
E----------------------------------------------------------------------|
A-2-2--2-2--2-2--2-2--5-5--5-5--5-5--5-5--2-2--2-2--2-2--2-2-----------|
D-4-4--4-4--4-4--4-4--7-7--7-7--7-7--7-7--4-4--4-4--4-4--4-4-----------|
G----------------------------------------------------------------------|
B----------------------------------------------------------------------|
E----------------------------------------------------------------------|

E----------------------------------------------------------------------|
A-7-7--7-7--7-7--7-7---------------------------------------------------|
D-9-9--9-9--9-9--9-9---------------------------------------------------|
G----------------------------------------------------------------------|
B----------------------------------------------------------------------|
E----------------------------------------------------------------------|

E----------------------------------------------------------------------|
A-2-2--2-2--2-2--2-2--5-5--5-5--5-5--5-5--2-2--2-2--2-2--2-2-----------|
D-4-4--4-4--4-4--4-4--7-7--7-7--7-7--7-7--4-4--4-4--4-4--4-4-----------|
G----------------------------------------------------------------------|
B----------------------------------------------------------------------|
E----------------------------------------------------------------------|

E----------------------------------------------------------------------|
A-7-7--7-7--09-09--10-10-----------------------------------------------|
D-9-9--9-9--11-11--12-12-----------------------------------------------|
G----------------------------------------------------------------------|
B----------------------------------------------------------------------|
E----------------------------------------------------------------------|



                        Now for the ending part.
E-5--6--7---5--6--7---5--6--7------------------------------------------|
A-7--8--9---7--8--9---7--8--9------------------------------------------|
D----------------------------------------------------------------------|
G----------------------------------------------------------------------|
B----------------------------------------------------------------------|
E----------------------------------------------------------------------|

E----------------------------------------------------------------------|
A----------------------------------------2-----------------------------|
D----------------------------------------4-----------------------------|
G----------------------------------------------------------------------|
B----------------------------------------------------------------------|
E----------------------------------------------------------------------|
Super Sonic, Super Sonic, Super Sonic Speeeeeeeeeeeeeeeeeeeeeed!

Just hold that chord for about 3-5 seconds and you've just played the main theme of Sonic Riders!


Tap to rate this tab
# A B C D E F G H I J K L M N O P Q R S T U V W X Y Z