Song name
# A B C D E F G H I J K L M N O P Q R S T U V W X Y Z

Misc Cartoons - Spongebob Tv Show Ending Theme tab

-------------------------------------------------------------------------------
	                 SPONGEBOB(cartoon tv show)
-------------------------------------------------------------------------------
Tabbed by: Seth

Tuning: Standard (EADGBe)

e|--7--6--7--9--7---0---7--6--7--9--7---0---0----|
B|-----------------------------------------------|
G|-----------------------------------------------|
D|-----------------------------------------------|
A|-----------------------------------------------|
E|-----------------------------------------------|

e|--7--6--7--9--7---0----------------------------|
B|-----------------------------------------------|
G|-----------------------------------------------|
D|-----------------------------------------------|
A|-----------------------------------------------|
E|-----------------------------------------------|

e|-----12--12---14--15--15---15--14--------------|
B|-----------------------------------------------|
G|-----------------------------------------------|
D|-----------------------------------------------|
A|-----------------------------------------------|
E|-----------------------------------------------|

e|-----12--12--12--14--15--15--15--14--12--------|
B|-----------------------------------------------|
G|-----------------------------------------------|
D|-----------------------------------------------|
A|-----------------------------------------------|
E|-----------------------------------------------|

e|---7--6--7--9--7---7--6--7--9--7--11--12-------|
B|-----------------------------------------------|
G|-----------------------------------------------|
D|-----------------------------------------------|
A|-----------------------------------------------|
E|-----------------------------------------------|

(optional bit)

e|--7------0-------------------------------------|
B|-----------------------------------------------|
G|-----------------------------------------------|
D|-----------------------------------------------|
A|-----------------------------------------------|
E|-----------------------------------------------|


************************************

NOTE-

This tab is not accurate if you compare it to the actual
Spongebob Ending Theme. It's not as long but probalby has
the smae notes but maybe played differently. If people say
to you when you play it,'Hey, that tab is not accurate if
compare it to the actual Spongebob Ending Theme!', just say,
'Dude, who cares?'.

Enjoy Playing.

-Seth
Tap to rate this tab
# A B C D E F G H I J K L M N O P Q R S T U V W X Y Z