Song name
# A B C D E F G H I J K L M N O P Q R S T U V W X Y Z

Misc Cartoons - Pink Panther Theme tab

-------------------------------------------------------------------------------
			     Pink Panther & Pals Theme
-------------------------------------------------------------------------------
Tabbed by:
Email:

This is the TAB for the Pink Panther & Pals Theme tune (well, obviously!) and can be 
found here on youtube:

http://www.youtube.com/watch?v=nYTL-qfPjD4

It's a pretty sweet Rock version of the original so I hope you enjoy learning it. I'll 
update it as soon as I can work out the other parts to it. Enjoy! :)

Tuning: Standard (EADGBe)

e|---------------------------9-8-----8-7~---|
B|----------8-9~---------8-9-----8-9--------|
G|---9-10~---------9-10---------------------|
D|------------------------------------------|
A|------------------------------------------|
E|------------------------------------------|

e|---------------------------9-8-----13-12~---|
B|----------8-9~---------8-9-----8-9----------|
G|---9-10~---------9-10-----------------------|
D|--------------------------------------------|
A|--------------------------------------------|
E|--------------------------------------------|


************************************

| ~   Let Ring

************************************
Tap to rate this tab
 
# A B C D E F G H I J K L M N O P Q R S T U V W X Y Z