Song name
# A B C D E F G H I J K L M N O P Q R S T U V W X Y Z

Misc Cartoons - Powerpuff Girls Theme tab

Key of E, standard tuning

Intro: Spoken, no music
Sugar...spice...and everything nice...etc.

When the music starts:
e------------------------------|
B------------------------------|
G------------------------------|
D-------------------10--9---7--|
A--7----7----7--10-------------|
E------------------------------|
(Blossom appears)
Mild distortion, or horn effect if possible

e--0----0----0---3---8--8----10---------|
B---------------------------------------|
G---------------------------------------|
D---------------------------------------|
A---------------------------------------|
E---------------------------------------|
(Bubbles appears)
This is supposed to be an octave higher but I ran
out of frets.  Use a keyboard if possible, or else
just play it in this octave.  Very clean sound.

e---------------------------|
B---------------------------|
G---------------------------|
D---------------------------|
A---------------------3--5--|
E--12/0----0----0--3--------|
(Buttercup appears)
Massive grunge distortion
The 12/0 means a slide starting at the 12th fret
and going down.  Listen to the song and you'll see
what I mean.

e------------------------|
B------------------------|
G------------------------|
D--2------5--2-----8--7--|
A--2------5--2-----8--7--|
E--0------3--0-----6--5--|
(villians appear)
Very bassy and menacing sounding tone, maybe played
twice.

e------------------------------|
B------------------------------|
G------------------------------|
D------------------------------|
A--7h9h10----10----10--13--12--|
E------------------------------|

e-----------------------------|
B-----------------------------|
G-----------------------------|
D-----------------------------|
A----10----10----10--13--12---|
E-----------------------------|

e--------------------------------|
B--------------------------------|
G--------------------------------|
D--------------------------------|
A----10----10----10--15--14--12--|
E--------------------------------|
(very end of song when they're beating up all the
bad guys)
This song sounds awesome when done well, it's an
excellent warm-up and it's a ton of fun to do.  Hope
you enjoy playing it as much as I loved figuring it
out!!
Tap to rate this tab
# A B C D E F G H I J K L M N O P Q R S T U V W X Y Z