Song name
# A B C D E F G H I J K L M N O P Q R S T U V W X Y Z

Misc Cartoons - Cutie Mark Crusaders Theme tab

#----------------------------------PLEASE NOTE--------------------------------#
#This file is the author's own work and represents their interpretation of the#
#song. You may only use this file for private study, scholarship, or research.#
#-----------------------------------------------------------------------------#

Cutie Mark Crusaders
Written by: Daniel Ingram
Performed by: The Cutie Mark Crusaders
Tabbed by Doggett7
E-mail: lotr_doggy@juno.com

Capo on the first fret.

              Am                 C

e -0--------0--------0-----0--------0--------0------------------|
B ----1--------1--------1-----1--------1--------1---------------|
G -------2--------2--------------0--------0---------------------|
D --------------------------------------------------------------|
A --------------------------------------------------------------|
E --------------------------------------------------------------|

             F                C          G

e -1--------1--------1-----0------------------------------------|
B ----1--------1--------1-----1-----3--0-----3--0---------------|
G -------2--------2--------------0--------0---------------------|
D --------------------------------------------------------------|
A --------------------------------------------------------------|
E --------------------------------------------------------------|

Tap to rate this tab
# A B C D E F G H I J K L M N O P Q R S T U V W X Y Z