Song name
# A B C D E F G H I J K L M N O P Q R S T U V W X Y Z

Misc Cartoons - Horrid Henry Theme tab

Horrid Henry (cartoon) theme
Tabbed by Mikey99p


Standard Tuning
Not sure of exact strumming

Intro starts with:
e|----------------------------||
b|----------------------------||
g|--11~-----------------------||
d|--11~-11-11---9-9-8-9-11----||
A|---9~-11-11---9-9-8-9-11----||
E|-------9--9---7-7-6-7- 9----|| x2


Slight difference during verse:
e|----------------------------||
b|----------------------------||
g|--11~-----------------------||
d|--11~-11-11---9-9-8-9-8-----||
A|---9~-11-11---9-9-8-9-8-----||
E|-------9--9---7-7-6-7-6-----|| x1

e|----------------------------||
b|----------------------------||
g|--11~-----------------------||
d|--11~-11-11---9-9-8-9-11----||
A|---9~-11-11---9-9-8-9-11----||
E|-------9--9---7-7-6-7- 9----|| x1

Repeat verse till:
e|----------------------------||
b|----------------------------||
g|--------6-----------8-------||
d|--6-----6-----8-----8-------||
A|--6-----4-----8-----6-------||
E|--4-----------6-------------||
 send...room...sing...tune


Chorus
e|----------------------------||
b|----------------------------||
g|-----8-8----6-6-5-6-5-------||
d|--6--8-8----6-6-5-6-5-------||
A|--6--6-6----4-4-3-4-3-------||
E|--4-------------------------||
   Na na na na na...

e|----------------------------||
b|----------------------------||
g|-----8-8----6-6-5-6-8-------||
d|--6--8-8----6-6-5-6-8-------||
A|--6--6-6----4-4-3-4-6-------||
E|--4-------------------------||

e|----------------------------||
b|----------------------------||
g|-----8-8----6-6-5-6-5-------||
d|--6--8-8----6-6-5-6-5-------||
A|--6--6-6----4-4-3-4-3-------||
E|--4-------------------------||


e|-------------||
b|-------------||
g|--11---------||      <<< last chord, play with distortion 
d|--10---------||           + tremolo
A|--12---------||
E|--10---------||


Go on, impress your kids!

Happy playing :)

(My first tab! Yay!)
Tap to rate this tab
 
# A B C D E F G H I J K L M N O P Q R S T U V W X Y Z