Song name
# A B C D E F G H I J K L M N O P Q R S T U V W X Y Z

Misc Cartoons - My Little Pony Friendship Is Magic - Cupcake Song chords

Highlighted       Show chord diagrams
-------------------------------------------------------------------------------
                            Cupcake Song - Pinkie Pie MLP:FIM
-------------------------------------------------------------------------------
Tabbed by:tsnelive
Email: tsnelive@yahoo.com

Tuning: Standard

For Everypony who needs a cupcake guide

    D       G       F       A                      
e|--2-------2-------1-------0----------
B|--3-------2-------1-------2----------
G|--2-------0-------2-------2----------
D|--0-------0-------3-------2----------
A|--0-------2-------3-------0----------
E|--0-------3-------1-------0----------




  D                             G
    All you have to do is take a cup of flour 
    F             A
    Add it to the mix 
   D                                  G
    Now just take a little something sweet, not sour 
    F                      A
    A bit of salt, just a pinch 

   D                       G
    Baking these treats is such a cinch
    F                 A
    Add a teaspoon of vanilla 
    D                     G
    Add a little more, and you count to four 
    F                      A
    And you never get your filla 

    D         G
    Cupcakes, so sweet and tasty 
    D         A
    Cupcakes, don't be too hasty 
    D         G         A         D 
    Cupcakes, cupcakes, cupcakes, CUPCAKES! 

(I prefer to strum the last 3 chords twice with the syllables)
Hope every pony enjoyed 
Tap to rate this tab
# A B C D E F G H I J K L M N O P Q R S T U V W X Y Z