Song name
# A B C D E F G H I J K L M N O P Q R S T U V W X Y Z

Misc Cartoons - Dragon Ball Z - Ocarina Del Heroe tab

OCARINA DEL HEROE

Intro:
e|-----------------------------------------------------|
B|-----------------------------------------------------|
G|------------5--3-----3--------------------3----------|
D|--------3---------6--------3--5--6-----6-----6--5----|
A|-3--3------------------------------------------------|
E|-----------------------------------------------------|

e|-----------------------------------------------------|
B|-----------------------------------------------------|
G|------------5--3-----3-------------------------------|
D|--------3---------6--------3--5--6-----6--5--3-----3-|
A|-3--3-------------------------------------------6----|
E|-----------------------------------------------------|



Verse/Estrofa:
e|------------------------------------------------------|
B|--4--4--4--2--1--------------------1-------------1----|
G|-----------------3--1-----1--1--3-----3----1--3-------|
D|-----------------------1------------------------------|
A|------------------------------------------------------|
E|------------------------------------------------------|

e|---------------------------------------|
B|--2--4--2--1-----1--1--1--2--1---------|
G|--------------3-----------------3--3---|
D|---------------------------------------|
A|---------------------------------------|
E|---------------------------------------|

e|------------------------------------------------------|
B|--4--4--4--2--1--------------------1-------------1----|
G|-----------------3--1-----1--1--3-----3----1--3-------|
D|-----------------------1------------------------------|
A|------------------------------------------------------|
E|------------------------------------------------------|

e|---------------------|
B|--2--4--2--1--2--4---|
G|---------------------|
D|---------------------|
A|---------------------|
E|---------------------|



Chorus/Estribillo:
e|--------------------------------------------------------------------|
B|--------------------------------------------------------------------|
G|--5----5--5--6--5--3-----5----5--5--6--5--3-----3-------------------|
D|----------------------6----------------------6--------5--6--5--3--3-|
A|--------------------------------------------------------------------|
E|--------------------------------------------------------------------|

Tabs by Fefe - Tron544
Tap to rate this tab
# A B C D E F G H I J K L M N O P Q R S T U V W X Y Z