Song name
# A B C D E F G H I J K L M N O P Q R S T U V W X Y Z

Misc Cartoons - Bamse Theme tab

(/) Slide Up  (\) Slide Down  (h) Hammer On  (p) Pull Off  (b) Bend (r) Release (v) Vibrato

E|----------------------------------------------------|
B|----------------------------------------------------|
G|-----------9--7-5-----------------------------------|
D|-----5--7---------9--7-5--------5-----9--7-5----5-7-|
A|--5-----------------------5--7-----5---------9------|
E|----------------------------------------------------|


E|----------------------------------------------------|
B|----------------------------------------------------|
G|----------------------------------------------------|osv
D|-99999999-77777777-55555555-7-5-----------5--7------|
A|--------------------------------9--7--5-------------|
E|----------------------------------------------------|
Tap to rate this tab
# A B C D E F G H I J K L M N O P Q R S T U V W X Y Z