Song name
# A B C D E F G H I J K L M N O P Q R S T U V W X Y Z

Misc Cartoons - Love Handel - You Snuck Your Way Right Into My Heart tab

                                                 |---3---|              
       Q     E   H         E     E   E   E   E   S   S   S  E   E   E   
E||--/12----------------------|----------------------------------------|
B||---------15--15~-----------|-----12--13--15--12h-13p-12-------------|
G||---------------------------|----------------------------14--12------|
D||---------------------------|------------------------------------14--|
A||---------------------------|----------------------------------------|
E||---------------------------|----------------------------------------|


    Q     E   H           S   S     E   E   E   H         E   
--------------------------------|----------------------------|
--------------------------------|------12--------------------|
--/14----12--12~---------11h-12-|--14------14--12~-----------|
--------------------------------|----------------------------|
--------------------------------|----------------------------|
--------------------------------|----------------------------|


    Q     E   H         E     E   E   E   E   E   E   E   E   
--/12----------------------|---------12--15--17--15--12--15--|
---------15--15~-----------|-----15--------------------------|
---------------------------|---------------------------------|
---------------------------|---------------------------------|
---------------------------|---------------------------------|
---------------------------|---------------------------------|


    Q     E   H          S  S     E   E   E   H         E    
--/17----15--15~--------14-15-|--17--19--17--15~-----------||
------------------------------|----------------------------||
------------------------------|----------------------------||
------------------------------|----------------------------||
------------------------------|----------------------------||
------------------------------|----------------------------||




Duration Legend
---------------
W - whole
H - half
Q - quarter
E - 8th
S - 16th
T - 32nd
X - 64th
. - note dotted
|-n-|  - n-tuplets


Tablature Legend
----------------
L - tied note
x - dead note
g - grace note
(n) - ghost note
> - accentuded note
NH - natural harmonic
AH - artificial harmonic
TH - tapped harmonic
SH - semi harmonic
PH - pitch harmonic
h - hammer on
p - pull off
b - bend
br - bendRelease
pb - preBend
pbr - preBendRelease
brb - bendReleaseBend
\n/ - tremolo bar dip
\n - tremolo bar dive
-/n - tremolo bar Release up
/n\ - tremolo bar inverted dip
/n - tremolo bar return
-\n - tremolo bar Release down
S - shift slide
s - legato slide
/ -  slide into from below or out of upwards
\ -  slide into from above or out of downwards
~ - vibrato
W - wide vibrato
tr - trill
TP - tremolo picking
T - tapping
S - slap
P - pop
< - fade in
^ - brush up
v - brush down
Tap to rate this tab
# A B C D E F G H I J K L M N O P Q R S T U V W X Y Z