Song name
# A B C D E F G H I J K L M N O P Q R S T U V W X Y Z

Misc Cartoons - Larval Stage Planning - Trip Innocent Of D tab

Highschool DxD opening
Trip -Innocent of D-
Standard EADGBE
Tabbed by ANIMEGUITARIST21

Intro
E|-(24x)v---------------------------11---------------------------------11-8---8-------------|
B|-13--<--------------11b-9-8-9-8-9----11b-9-8-9-8-9-----11b-9-8-9-8-9------11--9-11b-9-8---|
G|-15b-<-------------------------------------------8--------------------------------------8-|
D|------------------------------------------------------------------------------------------|
A|------------------------------------------------------------------------------------------|
E|----4-3-1-3-1-2-0-------------------------------------------------------------------------|
      * * * * * * *
Verse (clean)
E|------------------------------------------------------------------------------------------|
B|----------------------------------9-6------9-6--------------------------------------------|
G|-----5-------5-------6-------8--------5--------5-6-5--------------------------------------|
D|---3---3---5---5---6---6---6---6---------------------6------------------------------------|
A|-3-------3-------4-------6----------------------------------------------------------------|
E|------------------------------------------------------------------------------------------|

Verse 2/Pre Chorus
E|------------------------------------------------------------------------------------------|
B|------------------------------------------------------------------------------------------|
G|-5-5-6-8----------------------------------------------------------------------------------|
D|-5-5-6-8-6-6666-6666-8888-8888------------------------------------------------------------|
A|-3-3-4-6-6-4444-4444-6666-6666--6666-6666-8888-8888---------------------------------------|
E|---------4----------------------4444-4444-6666-6666---------------------------------------|
              * *  * *  * *  * *   * *  * *  * *  * *

Chorus (2x)
E|------------------------------------------------------------------------------------------|
B|------------------------------------------------------------------------------------------|
G|--9-7-----5-7-5-9----------------------------------------------------------9-7------------|
D|--x-x-----5-7-5-9---3-3-3-3-3-3-3-5-5-5-5-5-5-5-7-7-7-7-7-7-7-7-7-7-7-7-7--x-x------------|
A|--7-5-----3-5-3-7---3-3-3-3-3-3-3-5-5-5-5-5-5-5-7-7-7-7-7-7-7-7-7-7-7-7-7--7-5------------|
E|--------------------1-1-1-1-1-1-1-3-3-3-3-3-3-3-5-5-5-5-5-5-5-5-5-5-5-5-5-----------------|
                        * *   * *     * *   * *     * *   * * * * * * * * *

Outro
E|--------------------------11---------------------------------11-8---8---------------------|
B|------------11b-9-8-9-8-9----11b-9-8-9-8-9-----11b-9-8-9-8-9------11--9-11b-9-8-----------|
G|-------------------------------------------8------------------------------------8---------|
D|-3-5-7------------------------------------------------------------------------------3-----|
A|-3-5-7------------------------------------------------------------------------------3-----|
E|-1-3-5------------------------------------------------------------------------------1-----|


http://ive.mu/lsp/
Tap to rate this tab
# A B C D E F G H I J K L M N O P Q R S T U V W X Y Z