Song name
# A B C D E F G H I J K L M N O P Q R S T U V W X Y Z

Misc Cartoons - Disney Xd Theme tab

-----------------------------------------------------------------------------
                        DISNEY XD THEME - Misc Cartoons
-----------------------------------------------------------------------------
Tuning: E-A-D-G-B-E
Tabbed by: BenjaUribe

It's something like this:

                        Optional
                        +   +
E|--------------------|-----12~--|
B|--------------------|-12~------|
G|--------------------|----------|
D|--------------------|----------|
A|-8h9--9-8h9--9--8---|----------|
E|------------------9-|----------|

***********************
h = hammer-on
+ = harmonic
***********************
Tap to rate this tab
 
# A B C D E F G H I J K L M N O P Q R S T U V W X Y Z