Song name
# A B C D E F G H I J K L M N O P Q R S T U V W X Y Z

Misc Cartoons - Futurama Theme tab

This is my first tab ive produced,so go easy on da rating.
it was pretty easy to find out so dont give my too much praise.
enjoy. it is from the american tv show.

standard tuning.

---7--7----------5--5--------------------------
--------7--7--6-------5--5--4------------------
-----------------------------------------------
-----------------------------------------------
-----------------------------------------------
-----------------------------------------------

---7--7--7--7--7--7---------5-5-5-5-5-5--------
--------------------7-7-7-6-------------5-5-5-4
-----------------------------------------------
-----------------------------------------------
-----------------------------------------------
-----------------------------------------------

its as easy as that. thanx and im sure u'll hear from me again.
Tap to rate this tab
# A B C D E F G H I J K L M N O P Q R S T U V W X Y Z