Song name
# A B C D E F G H I J K L M N O P Q R S T U V W X Y Z

Misc Cartoons - Thomas The Train Theme tab

THOMAS THE TANK ENGINE THEME (EXTENDED VERSION)
REQUESTED. BASS NOTES AND MAIN MELODY..
THE BASS GOES AS LOW AS a SO.. WOULD
THE TUNNING BE DROP A? BECAUSE IT MIGHT BE
A 'G' AND 'A' NOTE BUT THE 'A' IS LOWER THEN 
THE 'G'..SO YOU CANT PLAY THE HIGHER 'A' OTHERWISE
IT DOSEN'T SOUND RIGHT.. BECAUSE ITS WRITTEN FOR PIANO
SO... I TABBED IT IN DROP A =s

/  slide
h  hammer on (usually quick ones in this theme)
~  ring
p  pull off
R  rest one beat


_________________________
|STEAM-TRAIN INTRODUCTION|
E|----------------------------------|
B|----------------------------------|
G|----------------------Ching-Ching-|
D|-----2-2-----2-----2--------------| X2
A|--0-------------0-----------------|
E|----------0-----------------------|



____________
|MAIN MELODY|
E|---------8--10-11/12---------------------|
B|-8-10-12-------------8-9-----------------|
G|-----------------------------------------|
D|-----------------------------------------|
A|-----------------------------------------|
E|-----------------------------------------|..

E|---------------------------------------------------------------------------------|
B|-10----10-8~----------9h10-------10-8~---7h8-7h8-7h8~--8------7h8-7h8-9~--9------|
G|----10---------------------10-10-------------------------------------------------|
D|---------------------------------------------------------------------------------|
A|---------------------------------------------------------------------------------|
E|---------------------------------------------------------------------------------|..

E|---------------------------------|
B|-----------7-8~--11~-------8~--9-|
G|----7h8-10------------10~--------|
D|---------------------------------|
A|---------------------------------|
E|---------------------------------|



__________
|DEEP PART|
E|---------------------------------------------------------------------------------------------------|
B|---------------------------------------------------------------------------------------------------|
G|--------------------------10~----------------5-5--8~---------------3-3--6~--6--6-5--5-5-6-8--6-----|
D|---------------8--8-11-11----------------6-6-------------------3-3------------------------------8-6|
A|12p11-10-9-8-8---------------------6-3-6-----------------4-1-4-------------------------------------|
E|---------------------------------R---------------------R-------------------------------------------|

E|---------------------------------------------------------------------------------------------------|
B|---------------------------------------------------------------------------------------------------|
G|------------------------12/13~--12-13-12-10--------------------------------------------------------|
D|------8--8-11-11--10~-------------------------------------------------------------10~-8--10-12-----|
A|--8-8----------------------------------------12/15-13-15-13-11\8---13-13-13-11\8-------------------|
E|---------------------------------------------------------------------------------------------------|




_________
|BUILD-UP|
E|----------------------------------------------------------------------------|
B|----------------------------------------------------------------------------|
G|----------------------------------------------------------------------------|
D|--13~--13-11~--11-10~--10-8~--8--------------(5-4-5-7-5-4-5-7-5)------------|
A|--------------------------------10~--10-8~--8-7~----------------------------|
E|-------------------------------------------------10-------------------------|




____________________
|OUTRO CHORUS ENDING|
E|--------------5---6--9~--8-8--6---------------------------------8-8--6------------|
B|----9-8-7--6----6---------------9--21----------------------------------9--21------|
G|----------------------------------------------------------------------------------|
D|----------------------------------------------------------------------------------|
A|---------------------------------------------11-8-5-------------------------------|
E|----------------------------------------------------11-8--------------------------|




____________________________________________________________________________________________
BASSBASSBASSBASSBASSBASSBASSBASSBASSBASSBASSBASSBASSBASSBASSBASSBASSBASSBASSBASSBASSBASSBASS

STREAM TRAIN INTRODUCTION IS ALSO DONE ON A GUITAR


____________
|MAIN MELODY|
D|-----------------------------------------------------------------------------------------------|
A|-----------------------------------------------------------------------------------------------|
E|-----3-----3--4-----4-----5-----3-----5-----3--3-5-6-----6-----4-----4----1-2--3--6--1--3--4---|
A|--3-----3--------6-----6-----5-----5-----5------------6-----6-----6-----6----------------------|



__________
|DEEP PART| (NOT THE PATTERN BUT THE NOTES)
D|--------------------------------------------------------|
A|--------------------------------------------------------|
E|--------------------------------------------------------|
A|---8-8-8-8------3-3-3-3-----1-1-1-1------0-0-0-1-3------|



________
|BUILD-UP|
D|---------------------------|
A|---------------------------|
E|-11--9--8--6---------------|
A|--------------10--8--7--5--|



____________________
|OUTRO CHORUS ENDING|
D|-------------------------------------------------------------------------|
A|-------------------------------------------------------------------------|
E|--4-3-2------5-6--9~-8--8-6-4--4----------16-13-10-7-4-----8--8-6-4--4---|
A|----------8--------------------------------------------------------------|

YAY DONE. THERE YA GO FOLKS. SORRY FOR THE DIFFERENT TUNINGS BUT PIANOS ARE BTCHEZ!
RATE AND COMMENT
Tap to rate this tab
# A B C D E F G H I J K L M N O P Q R S T U V W X Y Z