Song name
# A B C D E F G H I J K L M N O P Q R S T U V W X Y Z

Misc Cartoons - Courage The Cowardly Dog Theme tab

-------------------------------------------------------------------------------
                         Courage The Cowardly Dog - Outro
-------------------------------------------------------------------------------
Tabbed by: micssr

       C                 C                 F                 F              
e|-----8--------8--------8--------8--------8--------8--------8--------8------|
B|-----8-----------------8-----------------10----------------10--------------|
G|-----9-----------------9-----------------10----------------10--------------|
D|-----10----------------10----------------10----------------10--------------|
A|-----10----------------10----------------8-----------------8---------------|
E|-----8-----------------8-----------------8-----------------8---------------|
       6x                6x                6x                6x       
       
       C                 C                 F                 Fm              
e|-----8--------8--------8--------8--------8--------8--------8--------8------|
B|-----8-----------------8-----------------10----------------9---------------|
G|-----9-----------------9-----------------10----------------10--------------|
D|-----10----------------10----------------10----------------10--------------|
A|-----10----------------10----------------8-----------------8---------------|
E|-----8-----------------8-----------------8-----------------8---------------|
       6x                6x                6x                6x         

       C                 C                 C                 C              
e|-----8--------8--------8--------8--------8--------8--------8--------8------|
B|-----8-----------------8-----------------8-----------------8---------------|
G|-----9-----------------9-----------------9-----------------9---------------|
D|-----10----------------10----------------10----------------10--------------|
A|-----10----------------10----------------10----------------10--------------|
E|-----8-----------------8-----------------8-----------------8---------------|
       6x                6x                6x                6x         

       C                 C                 C                 C              
e|-----8--------8--------8--------8--------8--------8--------8--------8------|
B|-----8-----------------8-----------------8-----------------8---------------|
G|-----9-----------------9-----------------9-----------------9---------------|
D|-----10----------------10----------------10----------------10--------------|
A|-----10----------------10----------------10----------------10--------------|
E|-----8-----------------8-----------------8-----------------8---------------|
       6x                6x                6x                6x         

       F                 F                 C                 C              
e|-----8--------8--------8--------8--------8--------8--------8--------8------|
B|-----10----------------10----------------8-----------------8---------------|
G|-----10----------------10----------------9-----------------9---------------|
D|-----10----------------10----------------10----------------10--------------|
A|-----8-----------------8-----------------10----------------10--------------|
E|-----8-----------------8-----------------8-----------------8---------------|
       6x                6x                6x                6x       

       F                 Fm                C                 C              
e|-----8--------8--------8--------8--------8--------8--------8---------------|
B|-----10----------------9-----------------8-----------------8---------------|
G|-----10----------------10----------------9-----------------9---------------|
D|-----10----------------10----------------10----------------10--------------|
A|-----8-----------------8-----------------10----------------10--------------|
E|-----8-----------------8-----------------8-----------------8---------------|
       6x                6x                6x                2x       
Tap to rate this tab
 
# A B C D E F G H I J K L M N O P Q R S T U V W X Y Z