Song name
# A B C D E F G H I J K L M N O P Q R S T U V W X Y Z

Misc Cartoons - Pokemon Theme tab

Title: Pokémon Theme

Hey guys. I wrote this out maybe to give newbies something
to play that they might enjoy, because I know alot of beginner
songs aren't such fan favorites. I know the layout is crappy and
there are way cooler versions of this songs tab out there, 
but this one is purely for the simplicity. Its mostly accurate
and will have a couple revisions later, I did this at 2AM
drowsy out of my mind lol. Well, enjoy!

E |----------------|----------------|----------------|
B |-3-3-3-3--3-----|-1--------------|-3-3-1---1------|
G |----------------|---2------------|-------3--------|
D |----------------|-----3---3------|----------------|
A |----------------|----------------|----------------|
E |----------------|----------------|----------------|

E |----------------|----------------|----------------|
B |-4-4--4---4-----|-3-1------------|-3-3-1---3------|
G |----------------|-----3---3------|-------3--------|
D |----------------|----------------|----------------|
A |----------------|----------------|----------------|
E |----------------|----------------|----------------|x2


E |-----3-|
B |-3-6---|
G |-------|
D |-------|
A |-------|
E |-------|

E |-----1-3--3---1-(3)-|-3-3-5-6-5--3-1-|
B |-3-3----------------|----------------|
G |--------------------|----------------|
D |--------------------|----------------|
A |--------------------|----------------|
E |--------------------|----------------|

E |-----3-|
B |-3-6---|
G |-------|
D |-------|
A |-------|
E |-------|

E |-3--3--1--------------------|
B |---------3------1-3-3-1---3-|
G |-----------3--3---------3---|
D |----------------------------|
A |----------------------------|
E |----------------------------|

E |-----3-|
B |-3-6---|
G |-------|
D |-------|
A |-------|
E |-------|

E |----1-3---------10-10-8-10-6-5--|
B |3-3-----6^v-6~------------------|
G |--------------------------------|
D |--------------------------------|
A |--------------------------------|
E |--------------------------------|

E |------------------------10-10-13-15-15-|
B |---------------------------------------|
G |---4-4-----4-4---3-3^v-----------------|
D |-1-----5-3-----3---3^v-----------------|
A |---------------------------------------|
E |---------------------------------------|

E |-----------------10-13-15-|
B |-----------11-------------|
G |-7-7-10-12----12----------|
D |--------------------------|
A |--------------------------|
E |--------------------------|
Tap to rate this tab
# A B C D E F G H I J K L M N O P Q R S T U V W X Y Z