Song name
# A B C D E F G H I J K L M N O P Q R S T U V W X Y Z

Misc Cartoons - Mechanical Boy tab

MECHANICAL BOY by Jack Wild from HR Puf-n-stuff
Key: G

Chords: D                G             Em9              D9
          D  E  F#     G  A  B  D          G    F#   E    D  E  F#   B
|-----------------|-----------------|----------------|----------------|
|-----------------|--------0--------|----------------|----------------|
|-----------------|--0--2-----------|----0-----------|----------------|
|-------0--2--4---|-----------0-----|---------4---2--|--0--2--4-------|
|-----------------|-----------------|----------------|-------------2--|
|-----------------|-----------------|----------------|----------------|
       I'm a me-    chanical boy          like  a  me-  chanical    toy. 

        D                       G9                      Am9
          D   A  G   A  D  D D      B A B  E     E
|-----------|------------------|--------------------|
|-----------|------------------|--------------------|
|-----------|------------------|--------------------|
|---------0-|------------0-0-0-|------------2----2--|
|-----------|--0------0--------|-----2-0-2----------|
|-----------|-----3------------|--------------------|
          I   follow  di-rections, whatever I'm told.  

        Bm9                     C9
  C B C  F#  F# E    D  C  D G    F#
|------------------|----------------|----------------|----------------|
|------------------|----------------|----------------|----------------|
|------------------|---------0------|----------------|----------------|
|--------4---4--2--|-0-----0------4-|----------------|----------------|
|𣛨3------------|----3-----------|----------------|----------------|
|------------------|----------------|----------------|----------------|
I never get hot and I never get cold. 

     D9                  Am
  E  D  E  F# F# F# G F# G  A  G A
|------------------|---------------|----------------|----------------|
|------------------|---------------|----------------|----------------|
|------------------|-0---0--2--0-2-|----------------|----------------|
|-2--0--2--4--4-4-|---4-----------|----------------|----------------|
|-----------------|---------------|----------------|----------------|
|------------------|---------------|----------------|----------------|
I never have lived, so I never grow old

        D                       G
  B A B A B F# A    G  D  E  F#
|----------------|----------------|
|-0--0---0------|----------------|
|--2--2------2-|--0-------------|
|------------4---|-----0--2--4----|
|----------------|----------------|
|----------------|----------------|
That's because I'm a mechanical boy.



I'm a me-chanical boy
like a me-chanical toy. 
I follow directions, 
whatever I'm told. 
I never get hot and 
i never get cold. 
I never have lived, 
so i never grow old
That's because I'm a mechanical boy.

I'm a me-chanical boy,
like a me-chanical toy.
I do as I'm ordered, 
I never ask why. 
I never can laugh and 
I never can cry. 
I never have lived, 
so i never shall die. 
That's because I'm a, 
cause I'm a, 
cause I'm a, 
cause I'm a, 
cause I'm a mechanical boy.

Tap to rate this tab
# A B C D E F G H I J K L M N O P Q R S T U V W X Y Z