Song name
# A B C D E F G H I J K L M N O P Q R S T U V W X Y Z

Misc Cartoons - K-on - My Love Is A Stapler tab

e|-----------------------------------------------------------|
B|--13--13br--11--10--8--10--11--10------13--13------13------|
G|-------------------------------------------------------10--|
D|-----------------------------------10----------10----------|
A|-----------------------------------------------------------|
E|-----------------------------------------------------------|

e|---------------------------------------------|
B|--13--13br--11--10--8--8------11--10------8--|
G|--------------------------10----------10-----|
D|---------------------------------------------|
A|---------------------------------------------|
E|---------------------------------------------|

e|------------------------------|-----------------|
B|------------------------------|--5---5---5---5--|
G|---------------------10-------|--6---6---7---6--|
D|--10---7---8----10---10---10--|--7---7---7---7--|
A|--8----8---10---8---------10--|-----------------|
E|------------------------------|-----------------|

e|--------------------------------------------------------|---------------------|
B|--10----------------------------------10----------------|---------------------|
G|------10--10----------------------10------12--9--9------|--------------9--12--|
D|--------------10--10----------10--------------------11--|----------10---------|
A|----------------------12--12----------------------------|--12--12-------------|
E|--------------------------------------------------------|---------------------|

e|--------------------------|
B|--------------------------|
G|--7------5------3------5--|
D|--7------5------3------5--|
A|--5------3------1------3--|
E|--------------------------|

e|---------------------|---------------------|
B|---------------------|---------------------|
G|--10--9--------------|--9------------------|
D|---------12--10--12--|-----12--10------10--|
A|---------------------|-------------13------|
E|---------------------|---------------------|

e|---------------------|---------------------|
B|---------------------|---------------------|
G|---------------------|------------7--7--7--|
D|--8----8----8--8--8--|--7----7----7--7--7--|
A|--8----8----8--8--8--|--7----7----5--5--5--|
E|--6----6----6--6--6--|--5----5-------------|

e|--------------------------------------------|-------------------------|
B|--------------------------------------------|-----10--11--10----------|
G|------------------10--9----------12--10--9--|--9--------------12--10--|
D|------10--12--10---------12--12-------------|-------------------------|
A|--13----------------------------------------|-------------------------|
E|--------------------------------------------|-------------------------|

e|---------------------|-----------------------|
B|---------------------|-----------------------|
G|---------------------|--5-----------------5--|
D|--8----8----8--8--8--|--5-----------------5--|
A|--8----8----8--8--8--|--3--x--x--x--x--x--3--|
E|--6----6----6--6--6--|-----------------------|

e|-----------------|-----------------|
B|-----------------|-----------------|
G|------9--10--10--|--10--9--10--12--|
D|--12-------------|-----------------|
A|-----------------|-----------------|
E|-----------------|-----------------|

e|--------------------------|
B|--------------------------|
G|----------------7------5--|
D|--3------7------7------5--|
A|--3------7------5------3--|
E|--1------5----------------|

e|--8--8--8--8-----------------------------|--8--8--8--8-----------------5--6--5-----|
B|--------------6--5--6--5--6--8--6--5--6--|--------------6--5--6--5--6-----------6--|
G|-----------------------------------------|-----------------------------------------|
D|-----------------------------------------|-----------------------------------------|
A|-----------------------------------------|-----------------------------------------|
E|-----------------------------------------|-----------------------------------------|

e|---------------------------|
B|---------------------------|
G|---------------------------|
D|--8------7------5------10--|
A|--8------7------5------10--|
E|--6------5------3------8---|

e|--6--6--5-----5--5--------|--6--6--6--10--8--|
B|-----------8--------8--6--|------------------|
G|--------------------------|------------------|
D|--------------------------|------------------|
A|--------------------------|------------------|
E|--------------------------|------------------|

e|---------------------------|
B|---------------------------|
G|---------5---6---7------8--|
D|--3------5---6---7------8--|
A|--3------3---4---5------6--|
E|--1------------------------|

e|--8--8--8--8-----------------------------|--8--8--8--8-----------------5--6--5-----|
B|--------------6--5--6--5--6--8--6--5--6--|--------------6--5--6--5--6-----------6--|
G|-----------------------------------------|-----------------------------------------|
D|-----------------------------------------|-----------------------------------------|
A|-----------------------------------------|-----------------------------------------|
E|-----------------------------------------|-----------------------------------------|

e|---------------------------|
B|---------------------------|
G|---------------------------|
D|--5------7------8------10--|
A|--5------7------8------10--|
E|--3------5------6------8---|

e|--6--6--5-----5--5--------|--6--6--6--10--8---------6--5-----------|
B|-----------8--------8--6--|----------------------6--------8--6--6--|
G|--------------------------|----------------------------------------|
D|--------------------------|----------------------------------------|
A|--------------------------|----------------------------------------|
E|--------------------------|----------------------------------------|

e|-----------0--------------0-----|----------------------------|
B|--------6--------------6--------|--------------1---3---------|
G|--3--5--------5-----7--------5--|------5---5-----------4--5--|
D|-----------------7--------------|--5-------------------------|
A|--------------------------------|------3---3-----------------|
E|--------------------------------|--3-----------1---3---4--5--|

e|-------------0---------------------------------------|
B|--3---5---6-----------------3------------------------|
G|--3---5---------5---5---4---3---------5-----------5--|
D|--3---5-------------7---5---5---------5-----------5--|
A|--------------------------------x--x--3--x--x--x--3--|
E|-----------------------------------------------------|

e|-----------------------------------------------------------|
B|--13--13br--11--10--8--10--11--10------13--13------13------|
G|-------------------------------------------------------10--|
D|-----------------------------------10----------10----------|
A|-----------------------------------------------------------|
E|-----------------------------------------------------------|

e|---------------------------------------------|
B|--13--13br--11--10--8--8------11--10------8--|
G|--------------------------10----------10-----|
D|---------------------------------------------|
A|---------------------------------------------|
E|---------------------------------------------|
Tap to rate this tab
# A B C D E F G H I J K L M N O P Q R S T U V W X Y Z