Song name
# A B C D E F G H I J K L M N O P Q R S T U V W X Y Z

Misc Cartoons - Avatar Last Airbender - Little Soldier Boy tab

Leaves from the vine, Falling so slow. Like fragile, tiny shells, Drifting in the foam.

e-------------------------------------|------------------------------------------------|
B-------------------------------------|------------------------------------------------|
G-----7-7-7-5-4-------7-7-5-4---------|--------4--4-4----------4-4---------------------|
D-------------------------------------|--7--------------7-5---------7-5----------------|
A-------------------------------------|------------------------------------------------|
E-------------------------------------|------------------------------------------------|



Little soldier boy, Come marching home. Brave soldier boy, Comes marching home
e---------------------------------------|------------------------------------------------|
B---------------------------------------|------------------------------------------------|
G------7-7-7-5-4-------7-7-5-4----------|---------4-4-4----------4-4-4-------------------|
D---------------------------------------|--7-----------------7-5---------7-5-------------|
A---------------------------------------|------------------------------------------------|
E---------------------------------------|------------------------------------------------|
Tap to rate this tab
# A B C D E F G H I J K L M N O P Q R S T U V W X Y Z