Song name
# A B C D E F G H I J K L M N O P Q R S T U V W X Y Z

Misc Cartoons - The Cleveland Show Theme tab

E|--------------------------------------------------------------------------|
B|--------------------------------------------------------------------------|
G|--------------------------------------------------------------------------|
D|--2--2-----2--2--4--------------------2--2-----2--2--4--------------------|
A|--------4-----------4--2--0--2--2--0--------4-----------4--2--0--2--2--0--|
E|--------------------------------------------------------------------------|



E|----------------------------------------------------------------------------|
B|----------------------------------------------------------------------------|
G|-----2--------2----------------------------2--------2-----------------------|
D|--4-----4--2-----4--2--4--2--0--2-------4-----4--2-----4--2--4--2--0--2-----|
A|----------------------------------------------------------------------------|
E|----------------------------------------------------------------------------|



E|--------------------------------------------------------------------------|
B|--------------------------------------------------------------------------|
G|--------------------------------------------------------2--2-----2--2--4--|
D|--2--2-----2--2--4--------------------2--2-----2--2--4--------4-----------|
A|--------4-----------4--2--0--2--2--0--------4-----------------------------|
E|--------------------------------------------------------------------------|
Tap to rate this tab
 
# A B C D E F G H I J K L M N O P Q R S T U V W X Y Z