Song name
# A B C D E F G H I J K L M N O P Q R S T U V W X Y Z

Misc Cartoons - Avatar The Last Airbender - Little Soldier Boy tab

This is my first tablature... ever.
So please excuse me if the notes 
seam a little randomly placed. I
could only guess the spacing based
on the timing.

I hope this is accurate enough! =)

________________________________________

Standard tuning
Capo: 0
______________________________


 Leaves from the vine    Falling so slow
e|--0---0------------------0-0---------------|
B|----------3-/-2----------------3-/-2-------|
G|-------------------------------------------|
D|-------------------------------------------|
A|--0---------------0-0----0-------------0---|
E|-------------------------------------------|

   Like fragile tiny shells   Drifting in the foam
e|----------------------------------------------------|
B|----2-/-3---2---0------------2-2-2--0---------------|
G|--------------------2------------------2------------|
D|--------------------0-------------------------------|
A|----0-------0----------------0---------0---------0--|
E|----------------------------------------------------|

   Little soldier boy     Come marching home
e|--0-0---0------------------0-0--------------------|
B|------------3-/-2----------------3-/-2------------|
G|--------------------------------------------------|
D|--------------------------------------------------|
A|--0-----0-------0--0-------0-------------0--------|
E|--------------------------------------------------|

  Brave soldier boy            Comes marching home
e|-------------------------------------------------------------|
B|--2-/-3---2-0---------------------2-2-0----------------------|
G|----------------2---------------------------2----------------|
D|----------------0-----------------0--------------------------|
A|--o-------0---------0--0--2-----------------0--------------0-|
E|-------------------------------------------------------------|
Tap to rate this tab
 
# A B C D E F G H I J K L M N O P Q R S T U V W X Y Z