Song name
# A B C D E F G H I J K L M N O P Q R S T U V W X Y Z

Misc Cartoons - Resonance - Soul Eater Opening Theme tab

-------------------------------------------------------------------------------
                             Resonance - T.M. Revolution
-------------------------------------------------------------------------------
Tabbed by:Dat0Weird0Guy
E-mail:honoroll23@yahoo.com

Tuning:standard

e|--9-9-----5-5-----7-7----17~---16~---------------------------------------------------|
B|-------------------------------------------------------------------------------------|
G|-------------------------------------------------------------------------------------|
D|-------------------------------------------------------------------------------------|
A|-------------------------------------------------------------------------6-7-6-------|
E|---------------------------------------------------5-4-5-7---5-7-9---7-9--------9-7--|

e|-----------------------------------------|
B|-----------------------------------------|
G|-----------------------------------------|
D|-----------------------------------------|
A|-------------------------6-7-6-----------|
E|---5-4-5-7---5-7-9---7-9--------9-7------|
Tap to rate this tab
# A B C D E F G H I J K L M N O P Q R S T U V W X Y Z