Song name
# A B C D E F G H I J K L M N O P Q R S T U V W X Y Z

Misc Cartoons - Batman Theme tab

-------------------------------------------------------------------------------
                             The Batman (2004) Theme Song
-------------------------------------------------------------------------------
Tabbed by:SynesterXLigHT
E-mail: alexurch1@hotmail.com

Tuning:Standard (EADGBe)

Intro (0:00)
Repeat as necessary until the main riff kicks in.

e|----19-------19-------19---------------------------------------------------|
B|-17----17-17----17-17------------------------------------------------------|
G|---------------------------------------------------------------------------|
D|---------------------------------------------------------------------------|
A|---------------------------------------------------------------------------|
E|---------------------------------------------------------------------------|

Main Riff (0:08)

e|-7--8-10-8-7-----7--8-10-8-7-----------------------------------------------|
B|--------------10-----------------------------------------------------------|
G|---------------------------------------------------------------------------|
D|---------------------------------------------------------------------------|
A|---------------------------------------------------------------------------|
E|---------------------------------------------------------------------------|


Main Riff "Breakdown" (0:20)

e|---------------------------------------------------------------------------|
B|-10-9--9b10r9-8--5-5-5/8-8-------------------------------------------------|
G|---------------------------------------------------------------------------|
D|---------------------------------------------------------------------------|
A|---------------------------------------------------------------------------|
E|---------------------------------------------------------------------------|

Then play the Main Riff once more with a few hammer ons and pull offs thrown in for 
added effect, until...

Ending Riff(0:40)

e|-7-8-10----12-14-15-17-15-14-12-14-15-17\----------------------------------|
B|---------------------------------------------------------------------------|
G|---------------------------------------------------------------------------|
D|---------------------------------------------------------------------------|
A|---------------------------------------------------------------------------|
E|---------------------------------------------------------------------------|

The Baaatmaaan.(0:47)

   Em
e|--0------------------------------------------------------------------------|
B|--0------------------------------------------------------------------------|
G|--0------------------------------------------------------------------------|
D|--2------------------------------------------------------------------------|
A|--2------------------------------------------------------------------------|
E|--0------------------------------------------------------------------------|

I've played this over the song so many times and it is 99.9999% accurate. I like to put 
a mild phaser effect on to make it sound a little more echo-y. I hope you all enjoy this 
tab and feel free to email me if you have any questions. :) - Alex Urch "SynesterXLigHT"
************************************

| /   slide up
| \   slide down
| h   hammer-on
| p   pull-off
| ~   vibrato
| +   harmonic
| x   Mute note
| b   Bend
| pb  Pre-bend
| br  Bend release
| pbr Pre-bend release
| brb Bend release bend

************************************
Tap to rate this tab
 
# A B C D E F G H I J K L M N O P Q R S T U V W X Y Z