Song name
# A B C D E F G H I J K L M N O P Q R S T U V W X Y Z

Misc Cartoons - Rango - The End Of The Road tab

E-----------------------|-----------------------|------------------------------------|
B-----------------------|-----------------------|------------------------------------|
G-----9...----9---7...--|---9...---9---7-7---6--|-6^7^9--11---11---9---9---7---7---6-|
D--7--------7---7-------|-7------7---7-----7----|-----------9----9---7---7---7---7---|
A-----------------------|-----------------------|------------------------------------|
E-----------------------|-----------------------|------------------------------------|
                                      do that 2 times ,then :

E------------------------------------|-----------------------------------------------||
B-----12...----12----10--10----9...--|-9^10^12--14----14-----12---12---10---10---9...||
G--9---------9----9---------9--------|-------------11----11-----9----9----9----9-----||
D------------------------------------|-----------------------------------------------||
A------------------------------------|-----------------------------------------------||
E------------------------------------|-----------------------------------------------||
                                            do that 2 times

...  = let ring
^    = hammer on
Tap to rate this tab
 
# A B C D E F G H I J K L M N O P Q R S T U V W X Y Z