Song name
# A B C D E F G H I J K L M N O P Q R S T U V W X Y Z

Misc Cartoons - Pink Panther Theme tab

Hey! This is my first tab, so... ^_^ rate!
I think it's pretty correct, and if you're a beginner than just ignore all the
"p"s and "h"s mid-tab and just play the notes.
:) Enjoy!

E|-------------------------------------------------------------------|
B|-------------------------------------------------------------------|
G|-------------------------------------------------------------------|
D|-------------------------------------------------------------------|
A|--4/5--6/7---4/5--6/7---4/5--6/7---------------------8p7-------7p6-|
E|--2/3--4/5---2/3--4/5---2/3--4/5---7h8---4h5---7h8--------5/8------|


E|-------------------------------------------------------------------|
B|-------------------------------------------------------------------|
G|-------------------------------------------------------------------|
D|-------------------------------------------------------------7p6---|
A|--3/5--3-----------------4/5--6/7-----------------8p7-----7--------|
E|----------5--3--5p3h5----2/3--4/5--7h8--4h5--7h8-------8-----------|


E|-------------------------------------------------------------------|
B|-------------------------------------------------------------------|
G|-------------------------------------------------------------------|
D|----------------------------------5/7--5---------------------------|
A|--3/5--3----------------4/5--6/7---------7--5------5h6-5h6-5h6-5h6-|
E|----------5--3--5p3h5---2/3--4/5--------------8--5-----------------|


E|---------------------------------------------------------------------|
B|---------------------------------------------------------------------|
G|---------------------------------------------------------------------|
D|---------------------------------------------------------------------|
A|--3------------------------------------------------------------------|
E|-----5--3--5p3h5-----------------------------------------------------|
Tap to rate this tab
# A B C D E F G H I J K L M N O P Q R S T U V W X Y Z