Song name
# A B C D E F G H I J K L M N O P Q R S T U V W X Y Z

Misc Cartoons - Pokemon Orasion tab

Yo, TheoseusMC here with my first of the day and it is called Orasion from Pokemon the 
Rise of Darkrai. You should play this nice and soft just like in the movie, to actually 
get it right...

e-------------------------------------------------------------------------------|
B------------12--10-------------------12--11--------10--12--14--16--12--16--10--|
G---5--7--9----------12------5--7--9----------10--------------------------------|
D------------------------10-----------------------12----------------------------|
A-------------------------------------------------------------------------------|
E-------------------------------------------------------------------------------|
(Continuation of the first part)
e------------------------------------------------------------------------------|
B----------10--12--14--16--12--16--10------------------------------------------|
G--10----------------------------------12------5--7--9--7--5-------------------|
D------12----------------------------------10----------------------------------|
A------------------------------------------------------------------------------|
E------------------------------------------------------------------------------|
Tap to rate this tab
# A B C D E F G H I J K L M N O P Q R S T U V W X Y Z