Song name
# A B C D E F G H I J K L M N O P Q R S T U V W X Y Z

Misc Cartoons - Code Geass - Acoustic Emotions tab

-------------------------------------------------------------------------------
                             Code geass - acoustic emotions
-------------------------------------------------------------------------------
Tabbed by: Mindaugas Pikelis
E-mail:

Tuning:Standard

e|-------5--7--3----8--5--7-----7--------------------------------7--5-------|
B|--3/7--7-----5----------8--------8--10--8--7--8--10--10-----------7-------|
G|-------7-----5----------9--------9--9---9------------9------7-----7-------|
D|-------5-----3--0-------7--------------------------------5--------5-------|
A|-------5-----3----------7--7--------------------------------------5-------|
E|-------5-----3----------7-----------------------------------------5-------|

e|--7--8--10------4--8--7--5--3--2--3--5--------7--7-----5--7--8--10--------|
B|--------8---10--5--7--------1-----1--3--------------8--7--------8---10----|
G|----------------4--------------------------7------------------------------|
D|----------------------------------------5---------------------------------|
A|--------------------------------------------------------------------------|
E|--------------------------------------------------------------------------|

e|--4--10--8--7--5--3--2--3----------------------------------------|
B|--5------5--------1-----1----------------------------------------|
G|--4--------------------------------------------------------------|
D|-----------------------------------------------------------------|
A|-----------------------------------------------------------------|
E|-----------------------------------------------------------------|

Since there was no tabs avalible for this, I though I'd tab it.
I believe this very beutiful melody is in [Code geass R2 episode 7]part 2 around 
4:30minutes. In youtube.

Grats for you, whoever found this tab ;)

************************************

| /   slide up
| \   slide down
| h   hammer-on
| p   pull-off
| ~   vibrato
| +   harmonic
| x   Mute note
| b   Bend
| pb  Pre-bend
| br  Bend release
| pbr Pre-bend release
| brb Bend release bend

************************************
Tap to rate this tab
# A B C D E F G H I J K L M N O P Q R S T U V W X Y Z