Song name
# A B C D E F G H I J K L M N O P Q R S T U V W X Y Z

Misc Cartoons - K-on - Tenshi Ni Fureta Yo tab

---AlphaDigitize---

K-on Tenshi Ni Fureta Yo (K-on The Movie, Song For Asuza)

e|-------------------13-11-10-11-10/11/10---|
B|----10-11-13-11-13------------------------|
G|-10---------------------------------------|
D|------------------------------------------|
A|------------------------------------------|
E|------------------------------------------|

e|------------------------------------------|
B|-13-11-10-10-11-13-10-------10-10---------|
G|----------------------10-12---------------|
D|------------------------------------------|
A|------------------------------------------|
E|------------------------------------------|

e|---------------------------------|
B|---------------------------------|
G|-3---7-----8-10------------------|
D|-3-3-7-5-3-8-10------------------|x2
A|-1-3-5-5-3-6-8-------------------|
E|---1---3-1-----------------------|

e|-------------------|
B|-------------------|
G|-8-10-7---5-7-8-10-|
D|-8-10-7-5-5-7-8-10-|
A|-6-8--5-5-3-5-6-8--|
E|--------3----------|

e|------------------------------------------|
B|------------------------------------------|
G|-3-------8-10-7---8-10--------------------|
D|-3-3-5-3-8-10-7-5-8-10--------------------|
A|-1-3-5-3-6-8--5-5-6-8---------------------|
E|---1-3-1--------3-------------------------|

e|-----------------------------------------|
B|-----------------------------------------|
G|-3--------8-10-7---8-10-3----------------|
D|-3-3--5-3-8-10-7-5-8-10-3----------------|
A|-1-3--5-3-6-8--5-5-6-8--1----------------|
E|---1--3-1--------3-----------------------|

e|------------------------------------------|
B|----11----13-15---------------------------|
G|----------xx-xx---------------------------|
D|-12----13-13-15---------------------------|
A|------------------------------------------|
E|------------------------------------------|

e|------------------------------------------|
B|------------------------------------------|
G|-8-10-7-----8-7-5-3-5-7-------------------|
D|-8-10-7-5-8-8-7-5-3-5-7-------------------|
A|-6-8--5-5-8-6-5-3-1-3-5-------------------|
E|--------3-6-------------------------------|

e|----13----15----17----20-20---------------|
B|------------------------------------------|
G|-13----15----17----19---------------------|
D|------------------------------------------|
A|------------------------------------------|
E|------------------------------------------|

e|------------------------------------------|
B|------------------------------------------|
G|-3-------8-10-7---8-10--------------------|
D|-3-3-5-3-8-10-7-5-8-10--------------------|
A|-1-3-5-3-6-8--5-5-6-8---------------------|
E|---1-3-1--------3-------------------------|

e|---------------------------------------|
B|---------------------------------------|
G|-3-------8-10-7---8-10-----------------|
D|-3-3-5-3-8-10-7-5-8-10-----------------|
A|-1-3-5-3-6-8--5-5-6-8------------------|
E|---1-3-1--------3----------------------|

e|-------------------13-11-10-11-10/11/10---|
B|----10-11-13-11-13------------------------|
G|-10---------------------------------------|
D|------------------------------------------|
A|------------------------------------------|
E|------------------------------------------|

e|------------------------------------------|
B|-13-11-10-10-11-13-10-------10-11---------|
G|----------------------10-12---------------|
D|------------------------------------------|
A|------------------------------------------|
E|------------------------------------------|
Tap to rate this tab
 
# A B C D E F G H I J K L M N O P Q R S T U V W X Y Z