Song name
# A B C D E F G H I J K L M N O P Q R S T U V W X Y Z

Misc Cartoons - Adventure Time Theme tab

Song: Adventure Time Theme
Tab: Greygloom

Here's the Theme Song to my favorite TV-Show


Tempo: 164bpm

The Melody
    4+      1+   2  +3+  4      1+ 2  +  3  +4 +     1+ 2+ 3+ 4+
e|-------|--3----3--3----3---|--2--0-----0--------|--------------------------|
B|-------|-------------------|--------3-----3--0--|--1--0--------------------|
G|--0----|-------------------|--------------------|--------2--0--------------|
D|-------|-------------------|--------------------|--------------------------|
A|-------|-------------------|--------------------|--------------------------|
E|-------|-------------------|--------------------|--------------------------|

     1  +2 +  3+ 4+    1+ 2  +3+ 4+    1+ 2  +3  +4 +     1+2 +  3+ 4  +
e|------------------|--3--3--3---3--|--2--0------------|---------------------|
B|------------------|---------------|--------3-p-0--0--|--1---1--1--3--3-----|
G|------1--0--------|---------------|------------------|---------------------|
D|------------2--0--|---------------|------------------|---------------------|
A|------------------|---------------|------------------|---------------------|
E|------------------|---------------|------------------|---------------------|

    1+ 2  +  3+ 4+     1+   2+3+4+
e|-----------------|---3-----------------------------------------------------|
B|--3--0--0--------|---3-----------------------------------------------------|
G|-----------2--0--|---0-----------------------------------------------------|
D|-----------------|---------------------------------------------------------|
A|-----------------|---------------------------------------------------------|
E|-----------------|---------------------------------------------------------|



Background Music
    -            G           D           C           D
    4+           1+2+3+4+    1+2+3+4+    1+2+3+4+    1+2+3+4+
e|------------|--3--------|--2--------|--3--------|--2-----------------------|
B|------------|--3--------|--3--------|--5--------|--3-----------------------|
G|------------|--4--------|--2--------|--5--------|--2-----------------------|
D|------------|--5--------|--0--------|--5--------|--0-----------------------|
A|------------|--5--------|-----------|--3--------|--------------------------|
E|------------|--3--------|-----------|-----------|--------------------------|

After this it's the same chord pattern as for the previous 4 bars (G D C D)
Just use this strumming pattern   
                             aand the last bar
     1+  2  +3  +  4  +        1+2+3+4+
e|---x---x--x---x--x--x--|  |--3--------|                  
B|---x---x--x---x--x--x--|  |--3--------|
G|---x---x--x---x--x--x--|  |--4--------|
D|---x---x--x---x--x--x--|  |--5--------|
A|---x---x--x---x--x--x--|  |--5--------|
E|-----------------------|  |--3--------|

Lyrics:
  G               D
Adventure Time, c'mon grab your friends
      C          D
We'll go to very  distant lands.
G                     D
With Jake the dog and Finn the human.
    C
The fun will never end.
D              G
It's Adventure Time!


Have Fun
Tap to rate this tab
 
# A B C D E F G H I J K L M N O P Q R S T U V W X Y Z