Song name
# A B C D E F G H I J K L M N O P Q R S T U V W X Y Z

Misc Cartoons - Home - Fairy Tail tab

-----------------------------------------------------------------------------
                             Home - Fairy Tail
-----------------------------------------------------------------------------
Tabbed by: Luis Israel
Tuning: Standard

e|-------|-0---------|---------|-------------|-------------|
B|-0-1-3-|---3-0-----|---------|-----------0-|---------0---|
G|-------|------2-0--|-----0---|-----0-2-0---|-------2---0-|
D|-------|---------2-|-0-2---0-|-0-2---------|-2-2-0-------|
A|-------|-----------|---------|-------------|-------------|
E|-------|-----------|---------|-------------|-------------|

e|---0-------------|---------|-0---0-3---0---|---------|
B|-0---3-0---------|-------0-|---3-----3---3-|---0-----|
G|---------2-0-----|---0-2---|---------------|-2-----0-|
D|-------------2-0-|-2-------|---------------|-----0---|
A|-----------------|---------|---------------|---------|
E|-----------------|---------|---------------|---------|

e|-------0-------------|---------|-0---0-3---0---|---------|
B|-----0---3-0---------|-------0-|---3-----3---3-|---0-----|
G|-0-2---------2-0-----|---0-2---|---------------|-2-----0-|
D|-----------------2-0-|-2-------|---------------|-----0---|
A|---------------------|---------|---------------|---------|
E|---------------------|---------|---------------|---------|

Tap to rate this tab
 
# A B C D E F G H I J K L M N O P Q R S T U V W X Y Z