Song name
# A B C D E F G H I J K L M N O P Q R S T U V W X Y Z

Misc Cartoons - My Little Pony Friendship Is Magic - A True True Friend tab

Title: A True, True Friend
Origin: My Little Pony season 3, episode 13 Magical Mystery Cure
Song by: Daniel Ingram
Tabber: ozziethepossum
Tempo = 120
Key - G major, G# major
Capo - 3



     (A true true friend helps a friend in need....)
E |----------------------------|-----------0----------------|
B |--3--3-----3-----1--0--0----|--1--3-----------3L---------|
G |----------------------------|----------------------------|
D |----------------------------|----------------------------|
A |----------------------------|----------------------------|
E |--3--------3----------------|-----3----------------------|

(a friend will be there....)
-----3--3-------------------|----------------------------|
--3--------3--3-----1--0----|--0--1-----------0----------|
----------------------------|--------2--2--2-----2-------|
----------------------------|----------------------------|
----------------------------|----------------------------|
-----3--------3-------------|--------2-----2-----2-------|

(a true true friend helps a friend...)
----------------------------|-----------------0----------|
--------------0-----3L-3----|--1--0--3-----------3-------|
--2--0--0-----0-----0L-0----|--0--0--0-----0-------------|
--------0-----------2L-2----|--2-----0--0----------------|
--------2-----------0L-0----|--------3-------------------|
--------3-------------------|----------------------------|

(to see the light....)
--0--2--3--------0----------|----------------------------|
--------1-----------3-------|--0--------------0----------|
--------0-----0-------------|--------2-----2-----0-------|
--------2--2-----------0----|-----------0-----------0----|
--------3-------------------|----------------------------|
--------------------2-------|-----2--2-----------3-------|

                    (apple jack needs your...)
	            (rarity needs your....)	
----------------------------|--------------0-------------|
-----0--------------3-------|--3--3--1-----------3-------|
--0--------0--------0-------|--0--0--0-----0-----0-------|
--------------0--------0----|-----------------------0----|
----------------------------|----------------------------|
--------------------3-------|--------------------3-------|

           (she's trying hard....)
----------------------------|----------------------------|
-----3-----0--1--3----------|--3--1-----0----------------|
--0--0-----------------0----|-----------------2-----2----|
--------------------0-------|--------------------0-------|
----------------------------|----------------------------|
-----------------3----------|--3--------------2----------|

                 (won't you try.....)
-----2----------------------|----------------------------|
--3-----3-------------------|-----------0-----0----------|
-----------2--0--0-----0----|--0--2--2--0-----0----------|
-----------------2-----2----|--2--0--0--------------0----|
-----------------2-----2----|--2-------------------------|
-----------------0-----0----|--0--2--2--3-----3----------|

     (you might find....)
----------------------------|----------------------------|
-----0-----------0-----1----|--------1--1--1--0----------|
--0--------2-----------0----|-----0--------------2--2----|
-----------------------2----|--2-------------------------|
-----------------------3----|--------3-------------------|
----------------------------|--------------------2-------|

                    (a true true friend....)
--------------2-----3-------|--3L-3--2-----0-------------|
--------3-------------------|--------3-----3--3--3-------|
-----2----------------------|-----------------2----------|
--0-----------------2--2----|--2L-2-----0-----------0----|
--------------------2-------|--2L-2----------------------|
--------------------0-------|--0L-0--2-----------3-------|

                 (a friend will be there....)
-----0----------------------|----------------------------|
--3-----3--------3--3-------|--0L-0----------------------|
--------------0-------------|--------2-----2--2--2-------|
-----------0----------------|-----------0-----------0----|
----------------------------|----------------------------|
--------3-------------------|--------2-----------2-------|

                   (a true true friend....)
----------------------------|----------------------------|
-----0----------------------|--0L-0--3L-3--1--0--3-------|
--2-----2-----2--0--0-------|--0L-0--0L-0--0--0--0-------|
-----------0--------0-------|--------2L-2--2-----0--0----|
--------------------2-------|--------0L-0--------3-------|
--------2-----------3-------|----------------------------|

            (to see the light...)
-----0--------0--2--3-------|-----0----------------------|
--------3-----------1-------|--------3-----0-------------|
--0-----------------0-------|--0-----------------2-------|
--------------------2--2----|-----------0-----------0----|
--------------------3-------|----------------------------|
----------------------------|--------2--------2--2-------|

                                  ( pinkie pie is)
----------------------------|----------------------------|
-----0-----------0----------|-----1-----1--1--1-----1----|
--2-----0-----0--------0----|-----2-----2--2--2-----2----|
-----------0----------------|--0--2--2-----------2-------|
----------------------------|-----0-----------0----------|
--------3-------------------|----------------------------|

( in trouble)                 ( we need to get there...)
----------------------------|--------0-----0-----0-------|
--1--1-----3--------3-------|--1--3--1-----1-----1-------|
--2--2-----4-----4----------|--2--4----------------------|
-----------4--4-------------|-----4-----2----------------|
-----0-----2----------------|--0--2--3-----------3-------|
----------------------------|----------------------------|

                             ( we can try to do...)
--3-------------------------|-----------------------5L---|
--------3--------3-----0----|--0--1-----1-----1----------|
--------4-----4-------------|-----2-----2-----2----------|
--------4--4----------------|----------------------------|
--------2-------------------|-----0-----------0-----0----|
----------------------------|----------------------------|

                                 (or together we can....)
--5--3----------------------|-----7--7--7--7--7-----3L---|
-----------3-----------1----|--1-------------------------|
-----------2-----------2----|--2-------------------------|
-----------------------2----|--2-------------------------|
-----------------------0----|--0-------------------------|
-----3-----2----------------|-----7--7--7--7--7-----3----|

                                  (a true true friend...)
--3--5-----------5L---------|--5--3-----3L-3--2-----0----|
----------------------------|-----------------3-----3----|
----------------------------|----------------------------|
----------------------------|-----2--2--2L-2-----0-------|
-----0-----------0L---------|--0--2-----2L-2-------------|
----------------------------|-----0-----0L-0--2----------|

                             (a friend will be there....)
--------------0-------------|----------------------------|
--3--3-----3-----3----------|--3--3L-3--0L-0-------------|
--2--------------------0----|-----------------2-----2----|
--------0-----------0-------|--------------------0-------|
----------------------------|----------------------------|
-----3-----------3----------|-----------------2----------|

                             (a true true friend)
----------------------------|----------------------------|
--------------0-------------|-----------0L-0--3L-3--1----|
--2--2-----2-----2-----2----|--0--0L-0--0L-0--0L-0--0----|
--------0-----------0-------|-----0L-0--------2L-2--2----|
----------------------------|-----2L-2--------0L-0-------|
-----2-----------2----------|-----3L-3-------------------|

                             (to see the light)
--------------0--------0----|--2--3--------0-------------|
--0--3-----------3----------|-----1-----------3-----0----|
--0--0-----0----------------|-----0-----0----------------|
-----0--0-------------------|-----2--2-----------0-------|
-----3----------------------|-----3----------------------|
----------------------------|-----------------2----------|

                             (the townspeople need ya..)
----------------------------|----------------------------|
--------------0--4L---------|--4--4--4-----4-----2--1----|
-----2-----2----------------|----------------------------|
--------0-------------------|----------------------------|
----------------------------|----------------------------|
--2--2-----------4L---------|--4--4--------4-------------|

                                    (they march around..)
--------------1-------------|--------4--4----------------|
--1--2--4-----------4L------|--4L-4--------4--4-----2----|
----------------------------|----------------------------|
----------------------------|----------------------------|
----------------------------|----------------------------|
--------4-------------------|--------4--------4----------|

                              (and if you feel like..)
----------------------------|----------------------------|
--1--1--2-----------1-------|--------------------1-------|
-----------3--3--3-----3L---|--3--3--1--1--1--1-----3----|
----------------------------|-----------1----------------|
----------------------------|----------------------------|
-----------3-----3-----3L---|--3-------------------------|

                      (G# key change)
-----------------------4L---|
--------------1--4--1-------|
--1--1--1--3----------------|
--1-------------------------|
-----------------4----------|
-----------------------4L---|

                   ( if you get up there...)
--4L----4L----4-----------1-------------------------|
--------------------4--4--------4-----4-----1-------|
----------------------------------------------------|
----------------------------------------------------|
--------------------3-----------3-------------------|
--4L----4-------------------------------------------|


--1-----------1-------------|----------------------------|
-----4--4--1-----4--4--1----|--4L-4----------------------|
----------------------------|----------------------------|
----------------------------|----------------------------|
-----3-----------3----------|--3L-3----------------------|
----------------------------|----------------------------|

(a true true friend...)
-----4-----4-----3-----1----|--------------1-------------|
-----------------4----------|--4--4-----------4----------|
-----------------3----------|----------------------------|
--------3-----------2-------|-----------6----------------|
-----3-----3----------------|--------6-------------------|
-----4-----4-----3----------|-----4-----------3----------|

(a friend will be there....)
----------------------------|----------------------------|
--4--4L-4--1----------------|--------------1-------------|
-----------------3-----3----|--3--3-----3-----3-----3----|
--------------------2-------|--------2-------------------|
----------------------------|----------------------------|
-----------------3----------|-----3-----------3----------|

( a true true friend...)
----------------------------|-----------------1----------|
--------------1-----4L-4----|--2--1--4-----------4L-4----|
--1L-1--1L-1--1-------------|--1--1--1-----1-------------|
--------1L-1--------3L-3----|--3-----1--1----------------|
--------3L-3--------1L-1----|--------4-----------4L-4----|
--------4L-4----------------|----------------------------|

        (to see the light..)
--1L-1--3L-3--4-------------|--3L-3L----3--4-------------|
-----------------------4----|----------------------------|
--------------------5-------|-----------------------5----|
-----------------6----------|--------------------6-------|
--------------6-------------|-----------------6----------|
--------------4-------------|----------------------------|

(from a true true...)
--4L-4L----4--3L-------3----|--8L-8-----6-----------4L---|
----------------------------|-----------------------4L---|
----------------------------|-----------------------5L---|
----------------------------|-----------------------6L---|
----------------------------|-----------------------6L---|
----------------------------|-----------------------4L---|


--4L-4----------------------|----------------------------||
--4L-4----------------------|----------------------------||
--5L-5----------------------|----------------------------||
--6L-6----------------------|----------------------------||
--6L-6----------------------|----------------------------||
--4L-4----------------------|----------------------------||



Legend
L - tied note
x - dead note
h - hammer on/pull off
b - bend
s - slide
~ - vibrato
g - ghost note
> - accentuated note
t - trill
M - palm mute
. - staccato
P - popping (bass)
S - slapping (bass)
+ - tapping
W - wide vibrato
< - fade in
w - whammy bar
= - tremolo picking
v - brush up
^ - brush down
V - pick stroke up
n - pick stroke down
Tap to rate this tab
# A B C D E F G H I J K L M N O P Q R S T U V W X Y Z