Song name
# A B C D E F G H I J K L M N O P Q R S T U V W X Y Z

Misc Cartoons - Scooby-doo Theme tab

-------------------------------------------------------------------------------
			     Scooby Doo Theme
-------------------------------------------------------------------------------
Tabbed by: ur only hope
Email: uronlyhope@hotmail.com

Tuning:

e|-----------------------------|
B|-----------------------------|
G|-----------------------------|
D|-11-11--9-9--7--9--11--2-----|
A|-9--9---7-7--5--7--9---0-----|
E|-----------------------------|

e|-----------------------------|
B|-----------------------------|
G|-----------------------------|
D|-2-22--11-11--9--7-----------|
A|-0-00--9--9---7--5-----------|
E|-----------------------------|

e|-----------------------------|
B|-----------------------------|
G|-----------------------------|
D|-11-11--9-9--7--9--11--12----|
A|-9--9---7-7--5--7--9---10----|
E|-----------------------------|

e|-----------------------------|
B|-----------------------------|
G|-----------------------------|
D|-2-22--11-11--9--7-----------|
A|-0-00--9--9---7--5-----------|
E|-----------------------------|


| /  slide up
| \  slide down
| h  hammer-on
| p  pull-off
| ~  vibrato
| +  harmonic
| x  Mute note
===============================================================================
Tap to rate this tab
 
# A B C D E F G H I J K L M N O P Q R S T U V W X Y Z