Song name
# A B C D E F G H I J K L M N O P Q R S T U V W X Y Z

Misc Cartoons - Simpsons - Lisas Protest tab

----------------------------------------------------------------------------
		     LISA'S PROTEST SONG - The Simpsons
----------------------------------------------------------------------------

Tabbed By: Kaylie Tse
Email: kaylie@sympatico.ca

STANDARD TUNING

INTRO
E ----------------------
B ----------------------
G ----------------------
D --------3-3-3-3-3-3-3-
A --3-----3-3-3-3-3-3-3-  (Not exact strumming pattern)
E --------1-1-1-1-1-1-1-

VERSE
E --------------------------------- 
B ---------------------------------
G --------8-8-----------8----------     x 2  
D -3-3----8-8----3-3----8---3----3-	  
A -3-3----6-6----3-3----6---3----3-  
E -1-1-----------1-1--------1----1-

CHORUS
E --------------------------------
B --------------------------------
G ----------8-8---------8---------
D ----6-6---8-8---3-3---8---3-----
A ----6-6---6-6---3-3---6---3-----
E ----4-4---------1-1-------1-----


Come gather round children
its high time ye learns
bout a hero named Homer
and a devil named Burns

We'll march till we drop
the girls and the fellas
we'll fight till the death
or else fold like umbrellas

So we'll march day and night
by the big cooling tower
they have the plant 
but we have the power
Tap to rate this tab
# A B C D E F G H I J K L M N O P Q R S T U V W X Y Z