Song name
# A B C D E F G H I J K L M N O P Q R S T U V W X Y Z

Misc Cartoons - Kikaider Theme tab

Kikaider: Theme of Gemini


e---11-10-11---------11-10-8-----------------|
B-8----------8-----8---------11---9---4-6-8--|
G--------------------------------------------|
D--------------------------------------------|
A--------------------------------------------|
E--------------------------------------------|

---11-10-11---------11-10-8------------------|
-8----------8-----8---------11---9---11-13-8-|
---------------------------------------------|
---------------------------------------------|
---------------------------------------------|
---------------------------------------------|

-------------6--------6----3h4-3-3h4-6-8----|
-8-8h9-8-6-4--6---6-4--6--------------------|
--------------------------------------------|
--------------------------------------------|
--------------------------------------------|
--------------------------------------------|

-8-11-9-----10h11-9--------------------------|
--------9-6---------9-6-7-9-11---11-13-11-10-|
---------------------------------------------|
---------------------------------------------|
---------------------------------------------|
---------------------------------------------|

---11-10-11---------11-10-8-----------------|
-8----------8-----8---------11---9---4-6-8--|
--------------------------------------------|
--------------------------------------------|
--------------------------------------------|
--------------------------------------------|

---11-10-11---------11-10-8------------------|
-8----------8-----8---------11---9---11-13-8-|
---------------------------------------------|
---------------------------------------------|
---------------------------------------------|
---------------------------------------------|

--11-10-11----------13-11--8-9---9-10h11-13-|
-8---------8------9-------------------------|
--------------------------------------------|
--------------------------------------------|
--------------------------------------------|
--------------------------------------------|

there the endding of Kikaider
Have Fun :)
Tap to rate this tab
# A B C D E F G H I J K L M N O P Q R S T U V W X Y Z