Song name
# A B C D E F G H I J K L M N O P Q R S T U V W X Y Z

Misc Cartoons - Ayashi No Ceres - Scarlet tab

-------------------------------------------------------------------------------
			     Scarlet - Ayashi No Ceres
-------------------------------------------------------------------------------
Tabbed by: Geobot

Just learning to play, and this is one of my practice songs. It's the opening
to the anime series "Ayashi No Ceres" I ran a web search for the author, but
could not find a name, so cannot give credit where it's due. However, It is 
sung by Iwao Junko.

Got stuck at one part, but got it down thanks to Noir's piano arrangement 
submitted to Ichigo's Sheet Music(http://ichigos.com)

Tuning: Standard
Use a smooth, mellow sound, play slow, and it sounds great.

e|---------------------------------------------------------------------------|
B|---------------------------------------------------------------------------|
G|-----0-------2----0--2--3--3-----------------------------------------------|
D|--0-------0-------------------3----3--3--1--0-------1--1--0-----0----------|
A|-----------------------------------------------3-------------3-------------|
E|---------------------------------------------------------------------------|

e|---------------------------------------------------------------------------|
B|---------------------------------------------------------------------------|
G|-----0-------2----0--2--3--3-----------------------------------------------|
D|--0-------0-------------------3----3--3--1--0------------------------------|
A|-----------------------------------------------3----0--1-------------------|
E|---------------------------------------------------------------------------|

e|---------------------------------------------------------------------------|
B|---------------------------------------------------------------------------|
G|-----------------0---------------------------------------------------------|
D|--------0-----0-----0----0-----------3-------------------------------------|
A|--1--3-----3----------------3--1--3-----3----------------------------------|
E|---------------------------------------------------------------------------|

e|---------------------------------------------------------------------------|
B|---------------------------------------------------------------------------|
G|----------------------------0--2-----0--2----------------------------------|
D|-----0--1--3--0--1--3------------------------------------------------------|
A|--3----------------------1--------4----------------------------------------|
E|---------------------------------------------------------------------------|

e|---------------------------------------------------------------------------|
B|--------------1----------------------1-------------------------------------|
G|--3--3--3--2-----3--2--0----3--3--2----3--2--0--0--------------------------|
D|---------------------------------------------------3-----------------------|
A|---------------------------------------------------------------------------|
E|---------------------------------------------------------------------------|

e|---------------------------------------------------------------------------|
B|-----------------3--1-------------------1----------------------------------|
G|--------------0--------2----3--3--3--2-----3--2--0-------------------------|
D|--3--1--0--1---------------------------------------------------------------|
A|---------------------------------------------------------------------------|
E|---------------------------------------------------------------------------|

e|---------------------------------------------------------------------------|
B|-----------1-----------3--1------------------------------------------------|
G|--3--3--2-----3--2--3--------3--2-----0------------------------------------|
D|-----------------------------------3---------------------------------------|
A|---------------------------------------------------------------------------|
E|---------------------------------------------------------------------------|
Tap to rate this tab
 
# A B C D E F G H I J K L M N O P Q R S T U V W X Y Z