Song name
# A B C D E F G H I J K L M N O P Q R S T U V W X Y Z

Misc Cartoons - Powerpuff Girls Theme tab

Help us improve GuitareTab! Take a short survey!
e|-----------------------2-2-5------------|
B|-------5-8-7-5-------5------------------|
G|-----5-------------5--------------------|
D|-7-7-----------7-7----------------------|
A|----------------------------------------|
E|----------------------------------------|

e|-----------3-5--------------------------|
B|-5-------5------------------------------|
G|-------5--------------------------------|
D|---7-7----------------------------------|
A|---------------------7-6----------------|
E|---------------5-8-5--------------------|



e|-----------------3-7-6-3----------------|
B|-------5-8-7-5-5------------------------|
G|-----5----------------------------------|
D|-7-7---------------------7-7---10-9-7---|
A|-----------------------------7----------|
E|----------------------------------------|
Related for Powerpuff Girls Theme tab