Song name
# A B C D E F G H I J K L M N O P Q R S T U V W X Y Z

Misc Cartoons - Bear In The Big Blue House Theme tab

Misc cartoons - Bear in the Big Blue House
Tabbed by: Empo

-0-0-9-9--0--12-12-9----------0-0-9-9---0-8-7-5-8-7-5-0----0---------|
--------10----------10-7-10-7---------10----------------7-9-10-------|
---------------------------------------------------------------------|
---------------------------------------------------------------------|
---------------------------------------------------------------------|
---------------------------------------------------------------------|

-0-0-0-0-0-0-0-0-0-0---|
-----------------------|
-----------------------|
-----------------------|
-----------------------|
-----------------------|

-------------------------------------|
-10-10-10-10-10-10-12-10-13-12-10----|
-------------------------------------|
-------------------------------------|
-------------------------------------|
-------------------------------------|

---------------------------------|
-10-10-10-10-10-10-12-10-13-10---|
---------------------------------|
---------------------------------|
---------------------------------|
---------------------------------|

-------------------------------------------|
-6-6-8-6-6-10-10-10-10-10--7---13-14~------|
--------9-9---------------9-9--------------|
-------------------------------------------|
-------------------------------------------|
-------------------------------------------|
Tap to rate this tab
# A B C D E F G H I J K L M N O P Q R S T U V W X Y Z