Song name
# A B C D E F G H I J K L M N O P Q R S T U V W X Y Z

Misc Cartoons - South Park - Jesus Song tab

Ok this is the first song they play in the episode when cartman starts a
christian rock band. Im not sure about the lryics. I did the bass line too.

  I need you in my life, Jesus!...
E------0-2---0----------------------------|
B--0-3-----3---3-3------------------------|
G-----------------------------------------|
D-----------------------------------------|
A-----------------------------------------|
E-----------------------------------------|

Bass Part

G-----------------------------------------|
D-----------------------------------------|
A-------0-2-3---0-------------------------|
E-0-2-3-------3---3-3---------------------|
Tap to rate this tab
# A B C D E F G H I J K L M N O P Q R S T U V W X Y Z